Звери - Маленькая 'с' - аккорды и текст песни

    Am          D       Em
Мы запускаем в космос корабль
     Am        D       Em
Включается протянутый кабель
   Am        D
Планета голубая
   G         C
Пока мы исчезаем
   Am   Em
Пока пока


    Am          D        Em
Вокруг темно и можно разбиться
    Am        D       Em
Не хочется но это случится
   Am        D
Алло не отвечали
    G         C
Мы быстро исчезали
    Am         C
Мы быстро исчезали
     C        H
И с нами исчезали


Припев:

  C             D
Звезды в звездолетах
  Hm       Em
Храбрые пилоты
C             Am       Em
Расставанье маленькая "с"
  C         D
Провода искрятся
 Hm        Em
Нам не удержаться
 C           Am        Em
Расставанье маленькая "с"


   C     D     Hm    Em     C     Am    Em
E--3-----5-----7-----7----|-3-----5-----7---7---7--|
H---5-5---7-7---7-7---8-8-|--5-5---5-5---8---8---8-|
G----5-----7-----7-----9--|---5-----5-----9---9----|        


D-------------------------|------------------------|
A-------------------------|------------------------|
E-------------------------|------------------------|



Я нажимаю первую слева
Толчок прощай созвездие девы
Садишься и включаешь
Ты точно улетаешь
Пока пока


Антенны выше крыши антенны
Посадка высадка на измены
Ломались сигареты
Мы потерялись где-то
Мы потерялись где-то
Мы потерялись где-то


Мы запускаем в космос корабль
Включается протянутый кабель
Планета голубая
Пока мы исчезаем
Пока пока


Вокруг темно и можно разбиться
Не хочется но это случится
Алло не отвечали
Мы быстро исчезали
Мы быстро исчезали
И с нами исчезали


Припев:

Звезды в звездолетах
Что же вы пилоты
Расставанье маленькая "с"
Провода искрятся 
Нам не удержаться
Расставанье маленькая "с"



       C  D  Em         C   D     Em      C D  Em         C     D       Em
E-----------------------------------|-------------------------------------|
H-----------------10-8--8-8-7-------|---------------10-8--8--8--7-8-10-12-|
G----7-7-----7--7-------------9-7-9-|---7-7----7--7---------9-------------|
D--9--------9--9--------------------|-9-------9--9------------------------|
A-----------------------------------|-------------------------------------|
E-----------------------------------|-------------------------------------|

E------7/10---7/10-7/10---14-12--12-12-14-12-10-12-|
H--------------------------------------------------|
G----7---------------------------------------------|
D--9-----------------------------------------------|
A--------------------------------------------------|
E--------------------------------------------------|

E-12-10/12--10/12-12/10-10/12-12p10h12--12-10----10----------------------------|
H---------------------------------------------12----12-10--12-10----10---------|
G----------------------------------------------------------------12----12-11-9-|
D------------------------------------------------------------------------------|
A------------------------------------------------------------------------------|
E------------------------------------------------------------------------------|

E-------------7------------------------------------|----------------------------------------|
H------8--8-8-8-8-10-10-8-8-8-10-8-7---10-10p8-7---|------------------10-8--8--8--7-8-10-12-|
G----7---9-9-------9--9---9----9-----9------------9|------7--7---7--7---------9-------------|
D--9-----------------------------------------------|9--9--9-------9------------------------|
A--------------------------------------------------|----------------------------------------|
E--------------------------------------------------|----------------------------------------|
    C   Am   Em   C   Am    Em
E----------------------------|
H---8-8-7---------8-8-7------|
G---9----9-7-9----9-----9-7-9|
D----------------------------|
A----------------------------|
E----------------------------|

Понравилась песня "Маленькая 'с'" ?

Поделись с друзьями:

Аккорды других песен "Звери" :

все песни »
0

Привет, гитарист!

Пройди супер-курс по гитаре и порази всех своей игрой!

Забрать курс!
ВАМ ПОДАРКИ ОТ ПРОЕКТА
"ГИТАРНАЯ РЕВОЛЮЦИЯ"