Звери - До скорой встречи - аккорды и текст песни

Вступление:

E|------------------------------------------|
H|-5-4-5-2--5-7-5-7-5--5-4-5-2--5-7-7-5-7-9-|
G|------------------------------------------|

	   Dm
Вчерашний вечер
	G		 Am
Из подворотни,на все согласен
           Dm
Спасаться нечем
      G		 Am
И я охотник и я опасен
	  Dm
И очень скоро
G 	        Am	F
Еще минута и доверяю
       Dm            F	 
И мухоморы,конечно круто
          E
Но тоже вряд ли

	     F                  Dm
	До скорой встречи, до скорой встречи, \
	 G              C                      |
	Моя любовь к тебе навечно               > 2 раза
             F           Dm     E            |
	До скорой встречи, До скорой встречи  /

Соло:

E||----------5----5--------|----------5---5----------|--5-5-5-5-------------------------|
H||--6--8------------------|--8--6-------------------|------------8--8---6--6-----------|
G||------------------------|-------------------------|----------------------------------|
D||------------------------|-------------------------|----------------------------------|
A||------------------------|-------------------------|----------------------------------|
E||------------------------|-------------------------|----------------------------------|
                                                                                            
|----------------|-------------------------|---------------------|----------------------------|
|----------------|-------------------------|---------------------|----------------------------|
|--9--9--7--9----|-------------------------|----------------7----|--9----10--9----------------|
|----------------|--10----7----7--9--10----|--9----10--9---------|----------------7----9------|
|----------------|-------------------------|---------------------|----------------------------|
|----------------|-------------------------|---------------------|----------------------------|
                                                                                             
|--------------10--12----15--12--|----------12--13--15--12----|----------------------------12----|
|--10--12--13--------------------|----------------------------|-----15--15--13-13--12-13---------|
|--------------------------------|----------------------------|----------------------------------|
|--------------------------------|----------------------------|----------------------------------|
|--------------------------------|----------------------------|----------------------------------|
|--------------------------------|----------------------------|----------------------------------|
                                                                          
|----------------------|----------------------|--17----15--17---------------|
|------15----13---12---|----------------------|-----------------------------|
|----------------------|--14----12--14--------|-----------------------------|
|----------------------|----------------------|-----------------------------|
|----------------------|----------------------|-----------------------------|
|----------------------|----------------------|-----------------------------|
                                     
|-----------------------------|-----------17--19-20-21^^----------||
|----17--18--17--15--17-------|-------17--------------------------||
|-----------------------------|---19------------------------------||
|-----------------------------|-----------------------------------||
|-----------------------------|-----------------------------------||
|-----------------------------|-----------------------------------||

Тычинка-пестик
Любовь научит,
Совсем не пошло,
Когда мы вместе
Никто не круче
Но это в прошлом
И я не знаю,и я теряю
Вчерашний вечер,
Моя смешная,
Моя сквозная,
До скорой встречи

	Припев

Моя love-story короче ночи,
Смотрю на время,
И беспонтово мотает счетчик,
Такси на север
И я не знаю и я теряю
Вчерашний вечер,
Моя смешная,
Моя родная,
До скорой встречи

	Припев > 2 раза

	Соло

Понравилась песня "До скорой встречи" ?

Поделись с друзьями:
0

Привет, гитарист!

Пройди супер-курс по гитаре и порази всех своей игрой!

Забрать курс!
ВАМ ПОДАРКИ ОТ ПРОЕКТА
"ГИТАРНАЯ РЕВОЛЮЦИЯ"