Наташка - аккорды и текст песни

------------7------------5-----------3----------
---------0----0-------0---0-------0---0-------0-
------0---------0---0-------0---0-------0---0---
---5--------------4------------2-----------2----
------------------------------------------------
------------------------------------------------

--2-----------0------------2-----------0---
--0-------1---1-------1---1-------0---0----
----0---0-------0---2-------2---0-------0--
---------------------0-----------2---------
----------3--------------------------------
-------------------------------------------


*       **           ***  Am          H7       Em
Уже четыре долгих дня,   Наташку прячут от меня
Её как в детстве малыша, не отпускают не на шаг


Припев:

Она к окну прижавши нос
В ответ на мой немой вопрос
И пишет пальцем, позвони
Ты только голос измени


Напротив дома автомат, звоню который раз подряд
Но грубый голос мне в ответ: Наташка спит, Наташки нет


Припев:

Она к окну прижавши нос
В ответ на мой немой вопрос
И пишет пальцем по стеклу
Я дома, я тебя люблю


Ушёл последний мой трамвай, опять по шпалам мне шагать
Опять от мамки попадёт, вот не везёт, так не везёт
И дверь родимую открыв, мне мама строго говорит:
"Сыночек ужинать и спать", а на любовь ей наплевать

Понравилась песня "Наташка" ?

Поделись с друзьями:
0

Привет, гитарист!

Пройди супер-курс по гитаре и порази всех своей игрой!

Забрать курс!
ВАМ ПОДАРКИ ОТ ПРОЕКТА
"ГИТАРНАЯ РЕВОЛЮЦИЯ"