The Beatles - I Saw Her Standing There - аккорды и текст песни

One, two, free, four!

E (EVII)

E
Well, she was just seventeen,
E
You know what I mean,
E                                         H
And the way she looked was way beyond compare.
    E                       A      C
So how could I dance with another (ooh)
       E        H       E
And I saw her standin? there.

Well she looked at me, and I, I could see
That before too long I?d fall in love with her.
She wouldn?t dance with another (whooh)
And I saw her standin? there.

         A
Well, my heart went boom,
A
When I crossed that room,
A                       H  C
And I held her hand in mine...

Whoah, we danced through the night,
And we held each other tight,
And before too long I fell in love with her.
Now I?ll never dance with another (whooh)
Since I saw her standing there

Solo:
e |---------------------------------------------------
B |-----------------------------0-3-------------------
G |-4--2------------------0-2-2------2-0-----------0--
D |------0h5-2--2-0h2-0h2-----------------2--0-0h2----
A |---------------------------------------------------
E |---------------------------------------------------

e -------------4-4-4--------------------------------
B -----3-------5-5-5----------------------2---------
G -2/4----2-0--4-4-4--2-0-------------0h4----0h2-0--
D -------------------------------0-2----------------
A -------------------------2--2---------------------
E --------------------------------------------------

e ------------0--7--7--5-3-0--10--7-10-10-7h10-10-7-5--
B --------0-3------------------------------------------
G ------2----------------------------------------------
D -0h2-------------------------------------------------
A -----------------------------------------------------
E -----------------------------------------------------

e -7h10-7h10--------------------------------|
B -----------8--3-5--3p0--------------------|
G ------------------------------------------|
D ------------------------2--2--2-----------|
A --------------------------------2--2------|
E -------------------------------------0----|

Well, my heart went boom,
When I crossed that room,
And I held her hand in mine...

Whoah, we danced through the night,
And we held each other tight,
And before too long I fell in love with her.
Now I?ll never dance with another (whooh)
Since I saw her standing there
Since I saw her standing there
Since I saw her standing there

Понравилась песня "I Saw Her Standing There" ?

Поделись с друзьями:
0

Привет, гитарист!

Пройди супер-курс по гитаре и порази всех своей игрой!

Забрать курс!
ВАМ ПОДАРКИ ОТ ПРОЕКТА
"ГИТАРНАЯ РЕВОЛЮЦИЯ"