The Beatles - Day Tripper - аккорды и текст песни

e|---------------------------|-----------------------------|
b|---------------------------|-----------------------------|
g|---------------------------|-----------------------------|
d|----------2-0----4-----0-2-|-----------2-0-----4-----0-2-|
a|--------2------2-----2-----|---------2-------2-----2-----|
E|-0--3-4--------------------|-0---3-4---------------------|

e|---------------------------|-----------------------------|
b|---------------------------|-----------------------------|
g|----------2-0----4-----0-2-|-----------------------------|
d|--------2------2-----2-----|-----------2-0-----4-----0-2-|
a|-0--3-4--------------------|---------2-------2-----2-----|
E|---------------------------|-0---3-4---------------------|



E7
Got a good reason 
For taking the easy way out
A7
Got a good reason
     E7 
For taking the easy way out now

           F#             
She was a day____ tripper 
A one way ticket yeah
           A7      G#7         C#
It took me so____ long to find out
            B  
But I found out

She's a big teaser 
she took me half the way there
She's a big teaser 
She took me half the way there now

She was a day tripper 
A one way ticket yeah
It took me so long to find out 
And I found out

Tried to please her 
She only played one night stands
Tried to please her 
She only played one night stands, now

She was a day tripper 
A Sunday driver yeah
Took me so long to find out 
And I found out

Day tripper 
Day tripper yeah

Day tripper 
Day tripper yeah


Понравилась песня "Day Tripper" ?

Поделись с друзьями:

Аккорды других песен "The Beatles" :

все песни »
0

Привет, гитарист!

Пройди супер-курс по гитаре и порази всех своей игрой!

Забрать курс!
ВАМ ПОДАРКИ ОТ ПРОЕКТА
"ГИТАРНАЯ РЕВОЛЮЦИЯ"