Света - Скажи - аккорды и текст песни

Куплет:
  Dm              C               G               G
E-------1---------------0---------------3---------------3-
B-----3---------------1---------------0-----0---------0---
G---2---------------0---------------0-----------0---0-----
D-0-------------------------------------------------------
A-----------------3---------------------------------------
E---------------------------------3---------------3-------


Dm            C              G             G
  Рассвет придет, но не ко мне, но не ко мне.
Dm           C            G              G
  А я с тобой только во сне, только во сне.
Dm            C                      G            G
  Прошу, скажи, что любишь только меня, только меня.
Dm          C                 G             G
  А я с тобой, как дым без огня, дым без огня.

 Припев:
        Am                   F                    
Пусть стихнет моя печаль, Взмахнет своим крылом,   
Dm                  E                              
Я уже не вернусь в сердце твое, и в твой дом.    
 Am                    F                           
Только не надо лгать, больше не нужно лжи,         
Dm                 E                               
Если устанешь ты, так просто и скажи              

после каждого припева:
   Am          Am          Dm          E
E|-0---------|-0---------|-1---------|------0----|
B|------0--1-|------0--1-|------0--1-|-0-------0-|
G|---2-------|---2-------|---2-------|---1-------|
D|-----------|-----------|-----------|-----------|
A|-----------|-----------|-----------|-----------|
E|-----------|-----------|-----------|-----------|

   Am          Am          Dm          E
E|-0---------|-0---------|-1---------|-----------|
B|------0--1-|------0--1-|------0--1-|-0---------|
G|---2-------|---2-------|---2-------|---1-------|
D|-----------|-----------|-----------|------2----|
A|-----------|-----------|-----------|---------2-|
E|-----------|-----------|-----------|-----------|


Забудь о том, что было, но не с тобой, но не с тобой.
А с кем-то ты все же другой, все же другой.
А я боюсь тебя потерять, тебя потерять.
Но трудно мне это понять, это понять.

Припев 2р

Интерлюдия:
A-F-A-F-A-C-D-E
A-F-A-F-C-D-G-F

Припев 2р

Понравилась песня "Скажи" ?

Поделись с друзьями:
0

Привет, гитарист!

Пройди супер-курс по гитаре и порази всех своей игрой!

Забрать курс!
ВАМ ПОДАРКИ ОТ ПРОЕКТА
"ГИТАРНАЯ РЕВОЛЮЦИЯ"