Сукачев Гарик - Напои меня водой - аккорды и текст песни

Вступление:

                             F                        C
e||-----------------------|------------------------|--------------------------|
H||-----------------------|--10------------13--12--|--------------------------|
G||---------------------9-|------------------------|--12--------------------9-|
D||--------------7-9-10---|------------------------|----------------9-10-12---|
A||-----------------------|------------------------|--------------------------|
E||-----------------------|------------------------|--------------------------|
                                              
   Dm      F    G        Am
|---------------------|----------------------||
|---------------------|----------------------||
|--7------------------|----------------------||
|---------------10----|--10-9-7--------------||
|---------------------|----------------------||
|---------------------|----------------------||


              F            C 
Напои меня водой твоей любви
 Dm    F        G    Am
Чистой,  как душа младенца
Прилети ко мне стрелой, восхитительной стрелой
В сердце, в сердце


Dm               G       C   C/H   Am 
   Я читаю твой шифр, скрытый в словах
   На бледном бумажном листке
   Я закрываю глаза и чувствую ветер
     Dm    Dm/E  Dm/F Dm/G   G 
   Забытый      тобой на песке


Ты видишь, как пляшут огни индейских костров 
На лицах вождей умерших племен
Там, где замкнулся круг, где волос пронзило перо
Я танцую танец огня


   Погляди на меня и белым крылом 
   Птицы Сирин коснись ручья
   И рассвет поцелует зарю
   А заря разбудит свирель и позовет меня


Dm Dm/E Dm/F  Dm/G        G 
Я            слышу твой звук 
          C      Am  C Am 
Чувствую запах твой
Dm Dm/E Dm/F    Dm/G  G                C
Я            сплетаю сеть из пугливых нот
                   E7 
Чтоб ловить твой смех


Напои меня водой твоей любви 
Твоей любви, твоей любви
Прилети ко мне стрелой твоей любви
Твоей любви, твоей любви

Понравилась песня "Напои меня водой" ?

Поделись с друзьями:
0

Привет, гитарист!

Пройди супер-курс по гитаре и порази всех своей игрой!

Забрать курс!
ВАМ ПОДАРКИ ОТ ПРОЕКТА
"ГИТАРНАЯ РЕВОЛЮЦИЯ"