Сукачев Гарик - Ассоль - аккорды и текст песни

     G                                     G
E||-------------------------------------|-------------------------------------|
B||-----------3------1----0-------------|-----------3------1----0-------------|
G||--------0------0---------------------|--------0------0---------------------|
D||-----0-------------------------------|-----0-------------------------------|
A||-------------------------------------|-------------------------------------|
E||--3----------------------------------|--3----------------------------------|
                                                                             
   Am                                    Am7
|-----------0-----------0-------------|-----------3-----------3-------------||
|--------1---------1------------------|--------1---------1------------------||
|-----2---------2---------------------|-----2---------2---------------------||
|-------------------------------------|-------------------------------------||
|--0----------------------------------|--0----------------------------------||
|-------------------------------------|-------------------------------------||

Далее: G | G | C | C (иногда C в сочетании с Csus4)


  G           C                    G
Она сидит в кресле, с лоснящимся плюшем
C                                   G
И вяжет для кошки, что спит на диване
C             G    C             G
Носочки из шерсти, из розовой шерсти
C              G    Am                 G
Из ласковой шерсти, чтоб кошке было тепло


А на стене зеркало, а на нем
Открытки с артистами кино
С                               G
Они все так же молоды. Посмотри
Am                      Am/C           G
Как некрасив и неопрятен пучок ее волос
   C                 G      C              G
Схваченный сзади гребенкой,   костяною гребенкой
  C            G       Am              G
Треснувшею гребенкой, купленной очень давно
 Am                G
Купленной слишком давно


Семь белых слонов, от большого до малого
Стоят на старом комоде, на кружевах
На подоконнике столетник, на подоконнике герань
Ей уже шестьдесят, ей уже шестьдесят
Но ее капитан так и не приплыл, так и не приплыл
Тот кому она была предназначена погиб на войне
C             G         C              G
И они не встретились,   и они не встретились
C              G       Am          G
И они не встретятся даже на небесах
 Am          G
Даже на небесах


И она вяжет носки из шерсти для кошки
А кошка проснулась и играет с клубком
Кошка не знает, кошка даже не знает
Am             G    Am                   G
   Что эту старуху,   что сгорбилась в кресле
Am             G      Am                    G
   Что эту старуху...     когда то звали Ассоль
Am                 Am/C G
   Ее когда-то звали Ассоль

Понравилась песня "Ассоль" ?

Поделись с друзьями:
0

Привет, гитарист!

Пройди супер-курс по гитаре и порази всех своей игрой!

Забрать курс!
ВАМ ПОДАРКИ ОТ ПРОЕКТА
"ГИТАРНАЯ РЕВОЛЮЦИЯ"