Сплин - Романс - аккорды и текст песни

(можно играть с каподастром на пятом ладу, исполнение упрощается)

     A7                          Dm
E||---------------------------|---------------------5-----|
H||-----------5--------5------|-----------5h6-------------|
G||--------6-----6--------6---|--------7------7--------7--|
D||-----5-----------5---------|-----7------------7--------|
A||--7------------------------|--5------------------------|
E||---------------------------|---------------------------|

     A7                          Dm                       
E||---------------------------|---------------------5-----|
H||-----------5--------5------|-----------5h6-------------|
G||--------6-----6--------6---|--------7------7--------7--|
D||-----5-----------5---------|-----7------------7--------|
A||--7------------------------|--5------------------------|
E||---------------------------|---------------------------|

     Gm                          F                        
E||-----------5h6-------6-----|---------------------------|
H||--------8------8--------8--|-----------5h6-------6-----|
G||-----7------------7--------|--------5------5--------5--|
D||--5------------------------|-----7------------7--------|
A||---------------------------|--8------------------------|
E||---------------------------|---------------------------|

     Gm          A               Dm                        
E||-----------6---------------|---------------------5-----|
H||--------8--------------5---|-----------5h6-------------|
G||-----7--------------6------|--------7------7--------7--|
D||--5--------------7---------|-----7------------7--------|
A||--------------7------------|--5------------------------|
E||---------------------------|---------------------------|

Партия второй гитары:

     A7                      Dm
E||-----------------------|-----------------------|
H||----------5------------|----------6------------|
G||--------6--------------|--------7--------------|
D||------5----------------|------7----------------|
A||----7------------------|----5------------------|
E||--5--------------------|--5--------------------|

     A7                      Dm
E||-----------------------|-----------------------|
H||----------5------------|----------6------------|
G||--------6--------------|--------7--------------|
D||------5----------------|------7----------------|
A||----7------------------|----5------------------|
E||--5--------------------|--5--------------------|

     Gm                    F
E||---------------------|---------------------|
H||--5------6------6----|--5------6------6----|
G||---------------------|---------------------|
D||---------------------|---------------------|
A||---------------------|---------------------|
E||---------------------|---------------------|

     Gm       A            Dm   
E||-----------6----5----|-------------------|
H||--8------------------|--6----------------|
G||---------------------|-------------------|
D||---------------------|-------------------|
A||---------------------|-------------------|
E||---------------------|-------------------|


A7        Dm     A7           Dm
И лампа не горит, и врут календари
Gm              F                  Gm       A
И если ты давно хотела что-то мне сказать
    Dm
То говори


Любой обманчив звук. Страшнее тишина
Когда в самый разгар веселья падает из рук
Бокал вина


И черный кабинет, и ждет в стволе патрон
Так тихо, что я слышу, как идет на глубине
Вагон метро


Проигрыш: Gm F Gm A Dm A7 Dm


На площади полки. Темно в конце строки
И в телефонной трубке эти много лет спустя
Одни гудки


И где-то хлопнет дверь, и дрогнут провода
Привет! Мы будем счастливы теперь 
И навсегда                      

Видео и разбор песни

Понравилась песня "Романс" ?

Поделись с друзьями:
0

Привет, гитарист!

Пройди супер-курс по гитаре и порази всех своей игрой!

Забрать курс!
ВАМ ПОДАРКИ ОТ ПРОЕКТА
"ГИТАРНАЯ РЕВОЛЮЦИЯ"