Сплин - Мое сердце - аккорды и текст песни

 D                 G       D            
 Мы не знали друг друга до этого лета
       G           D        A      Hm              
 Мы болтались по свету, земле и воде
          D                G       D            
 И совершенно случайно мы взяли билеты
       G      D             A      Hm      
 На соседнее кресло на большой высоте

Припев:
      D    G       D            
 Мое сердце остановилось,
      D      A    Hm
 Мое сердце замерло,
      D    G       D            
 Мое сердце остановилось,
      D      A    Hm
 Мое сердце замерло.

          D                 G         D        
 И ровно тысячу лет мы просыпаемся вместе
      G      D       A         Hm              
 Даже если уснули в разных местах.
      D                  G         D        
 Мы идём ставить кофе под Элвиса Пресли,
 G        D          A           Hm              
 Кофе сбежал под PropellerHeads, ах!

Припев
 
           D                   G            D         
 И, может быть, ты не стала звездой в Голливуде
      G          D        A         Hm               
 Не выходишь на подиум в нижнем белье
      D            G       D         
 У тебя не берут автографы люди,
     G            D              A       Hm               
 И поёшь ты чуть тише, чем Монсерат Кобалье

          D                G          D         
 Ну так и я,слава Богу, не Ricky, не Martin,
         G        D                 A     Hm               
 Не выдвигался на Оскар, французам не забивал
      D                 G        D           
 Моим именем не назван город на карте,
      G         D         A       Hm               
 Но задёрнуты шторы и разложен диван 

Припев

       D                      G        D         
 Я наяву вижу то, что многим даже не снилось,
       G         D             A           Hm               
 Не являлось по кайфом, не стучалось в стекло.
       D    G      D           
 Моё сердце остановилось...
      D        G                  
 Отдышалось немного...
     A       Hm
 И снова пошло !!!


И моё сердце остановилось, моё сердце замерло  | 2 раза

И моё сердце asta la vista, моё сердце замерло.


E||-----------------------|---------------------------|----------------------|
B||--7----8----10----7----|--12----10--8--10--7----7--|----------8-----10----|
G||-----------------------|---------------------------|----------------------|
D||-----------------------|---------------------------|----------------------|
A||-----------------------|---------------------------|----------------------|
E||-----------------------|---------------------------|----------------------|


                                                              
-----------------------|------------------|------------------|
---7----8----7---------|------------------|------------------|
------------------7----|------------------|------------------|
-----------------------|------------------|------------------|
-----------------------|------------------|------------------|
-----------------------|------------------|------------------|


solo
E||------------------------------|------------------------|
B||--15----15--15--14--10--------|---------------------15-|
G||--------------------------14/-|-------16--14-----------|
D||------------------------------|------------------------|
A||------------------------------|------------------------|
E||------------------------------|------------------------|


                                                        
----------------------------|--------------------------|
-----15--15--17----19----17-|-----15----17----15----14-|
----------------------------|--------------------------|
----------------------------|--------------------------|
----------------------------|--------------------------|
----------------------------|--------------------------|


                                                                               
--------------------------|--------------------------|------------------------|
-----15----14----12----15-|-----15---15--14----10----|------------------------|
--------------------------|--------------------------|--12----11----14--------|
--------------------------|--------------------------|------------------------|
--------------------------|--------------------------|------------------------|
--------------------------|--------------------------|------------------------|


                                                                     
----------------------|--------------------------|------------------|
----------------------|--20--20--20--20----------|------------------|
--18--------21--------|--------------------------|------------------|
----------------------|--------------------------|------------------|
----------------------|--------------------------|------------------|
----------------------|--------------------------|------------------|

Видео и разбор песни

Понравилась песня "Мое сердце" ?

Поделись с друзьями:
0

Привет, гитарист!

Пройди супер-курс по гитаре и порази всех своей игрой!

Забрать курс!
ВАМ ПОДАРКИ ОТ ПРОЕКТА
"ГИТАРНАЯ РЕВОЛЮЦИЯ"