Сплин - Бонни и Клайд - аккорды и текст песни

Am
e|--------------0-|------------------|--------------0-|-------------0-|
B|------0^1-------|------0^1-----0^1-|------0^1-------|------0^1------|
G|----2-------2---|----2-------2-----|----2-------2---|----2-------2--|
D|--2-------2-----|--2-------2-------|--2-------2-----|--2-------2----|
A|0---------------|0-----------------|0---------------|0--------------|
E|----------------|------------------|----------------|---------------|
  C                Em               Am 
e|------0-----0---|------0-----0---|------------------|-------------0-|
B|--------1-----2-|--------0-----0-|------0^1-----0^1-|------0^1------|
G|----0-----0-----|----0-----0-----|----2-------2-----|----2-------2--|
D|--2-------------|--2-------------|--2-------2-------|--2-------2----|
A|3---------------|2---------------|0-----------------|0--------------|
E|----------------|----------------|------------------|---------------|
 C                Em                Am 
e|------0-----0---|------0-----0---|--------------0-|-------------0-|
B|--------1-----2-|--------0-----0-|------0^1-------|------0^1------|
G|----0-----0-----|----0-----0-----|----2-------2---|----2-------2--|
D|--2-------------|--2-------------|--2-------2-----|--2-------2----|
A|3---------------|2---------------|0---------------|0--------------|
E|----------------|----------------|----------------|---------------|


         C               Em
	Никому не доверяй
           Am
	Наших самых страшных тайн.
	 C               Em
	Никому не говори,
             Am
	Как мы умрем.

  	В этой книге между строк
	Спрятан настоящий бог.
	Он смеется, 
 	Он любуется тобой.

	Ведь ты красива, словно взмах
 	Волшебной палочки в руках
	Незнакомки из забытого
        Мной сна.

	Мы лежим на облаках,
	А внизу бежит река.
 	Нам вернули нашм пули
	Все сполна.

	Мы лежим на облаках,
	А внизу бежит река.
 	Нам вернули нашм пули
	Все сполна.

Понравилась песня "Бонни и Клайд" ?

Поделись с друзьями:
0

Привет, гитарист!

Пройди супер-курс по гитаре и порази всех своей игрой!

Забрать курс!
ВАМ ПОДАРКИ ОТ ПРОЕКТА
"ГИТАРНАЯ РЕВОЛЮЦИЯ"