Scorpions - Big city night - аккорды и текст песни

Intro and refr. :

    F     F(cis)F   Cis     C   Ais   GisDis      F   Dis Dis(4)      Dis
 e------------------------------------------------------4---4---4---4---3---3
 h------------------------------------------------------4---4---4---4---4---4
 g------------------6---6---5-----------8---8---10--8---3---3---3---3---3---3
 d------------------4---4---3-----------6---6---8---6------------------------
 a--3---3---4---3---------------8---6----------------------------------------
 e--1---1---1---1---------------6---4----------------------------------------

Verse :
 2x
    F               Cis             Gis             Ais (*2nd guitar
                                                         Ais(4)-Ais )
 e---------------------------------------------------------------
 h-------------------------------------------------*4--4-4-4--3-3
 g-------------------------------------------------*3--3-3-3--3-3
 d------------------6---6---6---6--------------------------------
 a--3---3---3---3---4---4---4---4---6---6---6---6---8---8---8---8
 e--1---1---1---1-------------------4---4---4---4---6---6---6---6

   F                Cis             Gis             C (*2nd guitar C(4)-C )
 e---------------------------------------------------------------
 h-------------------------------------------------*6--6-6-6--5-5
 g-------------------------------------------------*5--5-5-5--5-5
 d------------------6---6---6---6--------------------------------
 a--3---3---3---3---4---4---4---4---6---6---6---6---9---9---9---9
 e--1---1---1---1-------------------4---4---4---4---7---7---7---7

Middle part :

 2x
   C         Dis         Gis        Ais
 e------------------------------------
 h------------------------------------
 g------------------------1-----------
 d--5---------8-----------1----------3
 a--3---------6----------------------1
 e------------------------------------

Solo during intro :

 e-----------------------------------------------------------
 h------------------1----------------------------------------
 g----------------------3---0---1---0-------0----------------
 d----------1---3-----------------------3-------3---1--------
 a--3---3-----------------------------------------------4---3
 e-----------------------------------------------------------

 e----------------------8---6---8---6---8---6-------6----
 h----------------------------------------------9-------9
 g------------------1------------------------------------
 d----------1---3----------------------------------------
 a--3---3------------------------------------------------
 e-------------------------------------------------------

Sorry, but I don't know the longer solo!

Понравилась песня "Big city night" ?

Поделись с друзьями:
0

Привет, гитарист!

Пройди супер-курс по гитаре и порази всех своей игрой!

Забрать курс!
ВАМ ПОДАРКИ ОТ ПРОЕКТА
"ГИТАРНАЯ РЕВОЛЮЦИЯ"