Руки Вверх - В омут - аккорды и текст песни

Припев(вступление):
     
1|---3-2-0-----------2-----2-3-------
2|---------0-1---------5-4-------0---
3|---------------2-------------0---0-
4|-------------2---2-----------------
5|-----------0-----------------------
6|---0---------------2-------0-------

   
1|---3-2-0-----------2-----2-0-------
2|---------0-1---------5-4-------0---
3|---------------2-------------0---0-
4|-------------2---2-----------------
5|-----------0-----------------------
6|---0---------------2-------0-------

Em                      Am
Все дороги к тебе заколдованы,
F#                       Hm
Между нами стеной, тёмный лес стоит.
Hm                     Em
Где найти мне тебя, моё солнышко,
F#                          Hm
Птичьим криком к тебе боль моя летит.
Hm                       Em
Камнем вниз упаду крылья обломав,
F#                       Hm
И поднявшись с колен тихо прошепчу:
Hm                       Em
"Где же прячешься ты моё солнышко".
F#                      Hm
Отзовись я тебя так давно ищу.

Припев:
Hm             Em   F#    Hm
В омут твоих глаз снова упаду,
Полюбил тебя на свою беду.
И не убежать от моей любви,
Всё чем я живу это только ты.


Я прощаюсь, с холодною осенью,
Понимая, что мы не увидимся.
Над лесами, над снежною проседью,
Я искать тебя буду любимая.
Ветер чувства мои в клочья разорвал
И холодным ручьём слёзы, как вода.
Не найти мне тебя моё солнышко,
И с тобою не быть уже никогда.


Припев:
В омут твоих глаз снова упаду,
Полюбил тебя на свою беду.
И не убежать от моей любви,
Всё чем я живу это только ты.

Понравилась песня "В омут" ?

Поделись с друзьями:
0

Привет, гитарист!

Пройди супер-курс по гитаре и порази всех своей игрой!

Забрать курс!
ВАМ ПОДАРКИ ОТ ПРОЕКТА
"ГИТАРНАЯ РЕВОЛЮЦИЯ"