Руки Вверх - О тебе мечтая - аккорды и текст песни

Вступление: (пианино)

1|------------------------------------------------------------------------
2|---14-12-11------13-11-10----------------------14-12-11-----13-11-10----
3|-10---------10--8---------8-6--8-10-11-10-8-10---------10-8---------8-6-
4|------------------------------------------------------------------------
5|------------------------------------------------------------------------
6|------------------------------------------------------------------------

1|-------------------------------------------------------20-21-23-20-----21-
2|-------------------------21-20-18------20-18-16-----18------------19-18---
3|-11-11-13-14-16-18-19--18--------18--16--------16-14----------------------
4|--------------------------------------------------------------------------
5|--------------------------------------------------------------------------
6|--------------------------------------------------------------------------

1|-20--------18-16---------------------------------
2|---19-18-16-----18-16-14-14-16-18-19-18-16-14-11-
3|-------------------------------------------------
4|-------------------------------------------------
5|-------------------------------------------------
6|-------------------------------------------------

...
        Am         Em
Мягкий шелк простыней
     Dm                C     Em
Мне напомнит нежность руки твоей
       Am        Em
Мне не спится опять
        Dm          C     Em
В эту ночь могу я лишь мечтать

...аха..ляляля.. (Am Em Dm C Em)


Am              Dm
Я без тебя не живу не пою
G               C Em
Лишь о тебе мечтая
Am                  Dm
Только сейчас начал я понимать
G                   C Em
Как мне тебя не хватает

Я не хочу чтобы видела ты
Как я тихонько плачу
Губы твои вытрут слезы мои
Я не могу иначе

Что же ты,мой малыш
Все никак мне это не простишь
То что я далеко
Мы не виделись с тобой давно

Я без тебя не живу не пою
Лишь о тебе мечтая
Только сейчас начал я понимать
Как мне тебя не хватает

Я не хочу чтобы видела ты
Как я тихонько плачу
Губы твои вытрут слезы мои
Я не могу иначе

Понравилась песня "О тебе мечтая" ?

Поделись с друзьями:
0

Привет, гитарист!

Пройди супер-курс по гитаре и порази всех своей игрой!

Забрать курс!
ВАМ ПОДАРКИ ОТ ПРОЕКТА
"ГИТАРНАЯ РЕВОЛЮЦИЯ"