Red Hot Chili Peppers - Californication - аккорды и текст песни

Main Part, 1st guitar:
   Am             F               Am            F
E|----------------|--------------|-------------|---------------|
B|---------0-1----|--------------|-------0-1---|---------------|
G|----------------|---------0-2--|-------------|----------0--2-|
D|-----2----------|--------------|-----2-------|---------------|
A|-0--------------|-----2--------|-0-----------|------2--------|
E|----------------|-1------------|-------------|--1------------|

Main part, 2nd guitar (instead of bass guitar):

…          ^                             ^
D|----2--2-0-2--|----0--0-----|-----2--2-0-2-----|-----3--3--0-|
A|-0----------3-|----------3--|--0------------3--|-------------|
E|--------------|--1----------|------------------|--1----------|

Riff.1 1st & 2nd guitars:
    C              G              F                  Dm
E|---------0--------------------|----------------------------2-|
B|------------------------0-----|-------------------------3----|
G|------0-----0-----------------|----------2-------------------|
D|---------------------0-----0--|---------------------0--------|
A|--3---------------------------|-------3------3---------------|
E|-----------------3------------|---1--------------------------|


Solo( 1st guitar, 2nd g.-accompaniment):
  F#m           D/F# F#m           D/F#     Bm       D
E|-----9-------|----|----9--------|--------|-------------------|
B|--10-----^---^----|-10-------^--^--------|---^---------------|
G|-------11-13-|11--|-------11-13-|-11--11-|-11-9--------------|
D|-------------|----|-------------|--------|-------11-11--9-11-|
…
   A     E/G#      F#m            ^ D/F#  F#m            ^ D/F#
E|------^---------|-----9--12---14-|-14--|-----9--12--16-|-14--|
B|-9--12-14---9---|--10------------|-----|-10------------|-----|
G|-------------11-|----------------|-----|---------------|-----|
D|----------------|----------------|-----|---------------|-----|
…
   Bm         D              A      E/G#    Bm        D
E|-17-16-14---14------------|-------------|--------------14(16)|
B|---------17----17-14-17-14|14-----14----|-17-----17-14-------|
G|--------------------------|16(18)-16(18)|-16(18)-------------|
…
   A               E/G#               Main part
E|-14--------------------------------|---------|
B|----17-14-17-14----------17-15--14-|---------|
G|----------------16-14--------------|-14------|  End of solo
…


Lyrics:

Verse 1.
[main part]
Psychic spies from China
Try to steal your mind elation
Little girl from Sweden
Dream of silver screen quotations
[Riff. 1]
And if you want these kind of dreams
It’s Californication.
[main part]

It’s the edge of the world
And all of western civilization
The sun may rise in the East
At least it settles in the final location
It’s understood that Hollywood
Sells Californication

 Am, F, Am, F.
Am
Pay your surgeon very well
     F
To break the spell of aging
Am
Celebrity skin is this your chin
   F
Or is that war your waging

Chorus:
Am
First born unicorn
F
Hard core soft porn
C             G    Dm     Am
Dream of Californication
C             G    Dm
Dream of Californication

Verse 2:
Marry me girl be my fairy to the world
Be my very own constellation
A teenage bridge with a baby inside
Getting high on information
And buy me a star on the boulevard
It’s Californication

Space may be the final frontier
But it’s made in a Hollywood basement
Cobain can you hear the spheres
Singing songs off station to station
And Alderon’s not far away
It’s Californication

Born and raised by those who praise
Control of population everybody’s been there and
I don’t mean on vacation

Chorus.

Verse 3:

Destruction leads to a very rough road
But it also breeds creation
And earthquakes are to a girl’s guitar
They’re just another good vibration
And tidal waves couldn’t save the world
From Californication

Pay your surgeon very well
To break the spell of aging
Sicker than rest
There is no test
But this is what you’re craving

Chorus.

Chords for SOLO:
  F#m   D/F#     E/G#
E|-2-----2-------4---
B|-2-----3-------5---
G|-2-----2-------4---
D|-4-----4-------6---
A|-X-----X-------X---
E|-X-----X-------X---

Понравилась песня "Californication" ?

Поделись с друзьями:
0

Привет, гитарист!

Пройди супер-курс по гитаре и порази всех своей игрой!

Забрать курс!
ВАМ ПОДАРКИ ОТ ПРОЕКТА
"ГИТАРНАЯ РЕВОЛЮЦИЯ"