Пушной Александр - Парикмахер - аккорды и текст песни

Em C G H


Fm H
Жизнь, казалось, удалась
Em C
Лучше всех учился в классе
Fm H
С дипломом школу кончил красным
Em C
Всё, казалось, так прекрасно


Теперь друзей не помню лица
Кто бизнесмен, кто за границей
У всех профессии крутые
Квартиры, жёны молодые


Am
Ну а я вот парикмахер
H7
Никому не нужен на хер


Em C G H


Конечно, можно стать банкиром
Или на стройке бригадиром
Стать артистом попытаться
А на диване не валяться


Но остальные, я признаюсь
Живут, не сильно напрягаясь
Но почему-то все в округе
Всегда нуждаются друг в друге


Только я вот парикмахер
Никому не нужен на хер


G D
Все работы хороши
Hm Em
Выбирай себе на вкус
G D
Кто придумал эту чушь?
Hm A#
Кто придумал эту чушь?


И вот живу я, как придётся
Стригу, что в руки попадётся
Вчера синица залетела
Побрил её, аж посинела


В нашем деле – я-то знаю
Конкуренция большая
И тот у них там больше значит
Кто ориентирован иначе


А нормальный парикмахер
Никому не нужен... на хер

e---------------------------------------------------------------------
b---------------------------------------------------------------------
g--------------------4-2----------------------------------------------
d--2-4-5-4-------------------4-5-----2-4-5-4-----------4h5-4----------
a------------5-2---------------------------------5-2------------------
e---------------------------------------------------------------------

e-------------------------------------------------
b---7h8p7----7p5h7-----5h7p5---5p4h5--------------
g-------------------------------------------------
d-------------------------------------------------
a-------------------------------------------------
e-------------------------------------------------

Видео к песне

Понравилась песня "Парикмахер" ?

Поделись с друзьями:
0

Привет, гитарист!

Пройди супер-курс по гитаре и порази всех своей игрой!

Забрать курс!
ВАМ ПОДАРКИ ОТ ПРОЕКТА
"ГИТАРНАЯ РЕВОЛЮЦИЯ"