Пилот - Цветные стекла - аккорды и текст песни

Вступление:


   Е     Ам   Е     Ам   F   F   [G(барэ) ] Ам           
1--0-х-0-0----0-х-0-0----1-x-1-x-3----3-х-3-0       
2--0-х-0-1----0-х-0-1----1-x-1-x-3----3-х-3-1
3--1-х-0-2----1-х-0-2----2-x-2-x-4----4-х-4-2
4--2-х-0-2----2-х-0-2----3-x-3-x-5----5-х-5-2
5--2-х-0-0----2-х-0-0----3-x-3-x-5----5-х-5-0
6--0-х-0-0----0-х-0-0----1-x-1-x-3----3-х-3-0


1------------------------------0-------------------------------------------------
2-1-0--1---0-1-0-1------------1-1--------1-0--1---0-1-0-1------------------------
3-------------------2--------2---2--------------------------2--------------------
4---------------------------2-----2----------------------------------------------
5--------------------------0-------0------------------------------------------0--
6-------------------------0-----------------------------------------0-3-1-0-1----


   Am                                                   Dm                         Am       
Приходила зима, закрывались окна,уходили со двора пьяные дети,Кидающие камни по стеклам
1---------------------------------------------------------1--1--------------------------
2-1---0-1-0-3---1-0-1-0-1------1---0-1-0-3---1-0-1-0-1----3----3------------------------
3-------------------------2-------------------------------2------2----------------------
4---------------------------------------------------------0-----------------------------
5---------------------------------------------------------0-----------------------------
6---------------------------------------------------------0-----------------------------


  Am    
Приходила зима, закрывались окна 
                         Dm
Уходили со двора пьяные дети
                      Am
Кидающие камни по стеклам
И я опять закладывал уши ватой
                                   Dm
До весны, чтоб не слышать как шел снег
                  Am
По прокуренным парадным


Припев:

  Dm
Не уходи, побудь со мною рядом
  Dm7
Я уже совсем не тот, как раньше
 F                                G
Я уже не умею красить красками стекла
   F                       G
Я уже не умею веселиться зимою


Надевала шпана сапоги, улетали птицы на юг
В жаркие страны
Я сбивал их рогаткой с окошка
Я ходил полупьяный и заглядывал в лица
Пока кто-нибудь не посылал меня на
Как будто я там еще не был


Припев:

Не уходи, побудь со мною рядом
Я уже совсем не тот, как раньше
Я уже не умею красить красками стекла
Я уже не умею веселиться зимою


4--5--3-2-0-2--0-5-5-3-2--0-5-5-3-2-0-2-0---]
5-----------------------------------------3-]
6-------------------------------------------]


И зарывались в песок детские сказки
Уходили читать газеты в старом сортире
И кидать кабанам ириски
Убегали все кошки искать пожрать
И толстые тетки жались к подъездам
Обоссаным их-же мужьями


Припев:

Не уходи, побудь со мною рядом
Я уже совсем не тот, как раньше
Я уже не умею красить красками стекла
Я уже не умею веселиться зимою

Понравилась песня "Цветные стекла" ?

Поделись с друзьями:
0

Привет, гитарист!

Пройди супер-курс по гитаре и порази всех своей игрой!

Забрать курс!
ВАМ ПОДАРКИ ОТ ПРОЕКТА
"ГИТАРНАЯ РЕВОЛЮЦИЯ"