Пилот - Сфинксы - аккорды и текст песни

Вступление:

               Hm
e|-------10----10-9-------------------------------|
H|----12-------------12---------------------------|
G|-11----------------------11---------------------|

               G
e|-------12----10-9-------------------------------|
H|----12-------------12---------------------------|
G|-11----------------------12---------------------|

               Em
e|-------------10-9--------12---------------------|
H|-------------------12---------------------------|
G|------------------------------------------------|

               A                       F#
e|-------------10-9-------------------------------|
H|-------------------12----10----------11---------|
G|------------------------------------------------|


      Hm                                       A     F#m
Я прошу одного: Дай мне шанс, чтобы выйти из клетки
   Hm                               G   F#
Я малого стою, я знаю, но крылья зовут
      Hm                                A     F#m
Незнакомые странные земли мне снятся нередко
       Hm                                      A       F#
И твердит в моем сердце звезда: «Там давно тебя ждут!»


Припев:

        Hm                    D
Севера синие льды, звезды востока
            Em                      A      F#
На унтах шаманских сакуры цвет, да полынь
 A      Hm                    D
Перевернутся полюса от ока до ока
              Em                    C       F#
Поднимутся в воздух крылатые кошки пустынь


Не маши мне рукой. Было время – ты нужен был рядом
Небо видит те слезы, что ночью пролиты тайком
Кто делил со мной радость и боль, остаются со мною
Мы уйдем, изнутри открывая двери огнем


Припев:

Севера синие льды, звезды востока
На унтах шаманских сакуры цвет, да полынь
Перевернутся полюса от ока до ока
Поднимутся в воздух крылатые кошки пустынь


Кто сказал, что нужно все время за что-то бороться?
Небо рядом. Небо в тебе. Просто нужно понять
Сколь зерна не кидай, птица вольная в нас не уймется
На свободу она будет рваться опять и опять


Припев:

Севера синие льды, звезды востока
На унтах шаманских сакуры цвет, да полынь
Перевернутся полюса от ока до ока
              Em                    A       F#
Поднимутся в воздух крылатые кошки пустынь


                  Hm
e|----12-10-9-----10-------12-14-------------------|
H|----------------------------------------------12-|
G|-11----------------------------------------------|

                  D
e|----10-9--------10-------12-14----------------14-|
H|----------12-------------------------------------|
G|-------------------------------------------------|

                  Em
e|----14-15-17----15-------14-12-------10----------|
H|----------------------------------------12-------|
G|-------------------------------------------------|

                  A                       F#
e|----14-15-17----15-------14-12----12-10-9--------|
H|-12----------------------------------------------|
G|-------------------------------------------------|

                  Hm
e|-9--12-10-9-----10-------12-14-------------------|
H|----------------------------------------------12-|
G|-------------------------------------------------|

                  D
e|----10-9--------10-------12-14----------------14-|
H|----------12-------------------------------------|
G|-------------------------------------------------|

                  Em
e|----14-15-17----15-------14-12-------10----------|
H|----------------------------------------12-------|
G|-------------------------------------------------|

                  A                       F#
e|----14-15-17----15-------14-12-------10-9--------|
H|-12----------------------------------------------|
G|-------------------------------------------------|

Hm

Понравилась песня "Сфинксы" ?

Поделись с друзьями:
0

Привет, гитарист!

Пройди супер-курс по гитаре и порази всех своей игрой!

Забрать курс!
ВАМ ПОДАРКИ ОТ ПРОЕКТА
"ГИТАРНАЯ РЕВОЛЮЦИЯ"