Пилот - Луг золотой - аккорды и текст песни

Вступление/Проигрыш:


Am7                 Hm7*
e|---3----|---3----|---5----|--------|-
B|--1---1-|--1---1-|--3---3-|----3---|-
G|-2---2-2|-2---2-2|-4---4-4|---4-4-4|-
D|--------|2-------|4-------|-44---4-|-
A|0-------|--------|--------|--------|-
E|--------|--------|--------|--------|-


 Аm                Am*
Луг золотой, я гуляю с косой
      Am                 Am*
Не спеши, постой, поговори со мной!
    Dm              Dm*
Хорошо, легко, и видать далеко
    E
Как идет один человеческий сын


      F              E
А на теплый Свет и птица летит
    Am                Am^             F   Fm
И зверь бежит, и человек спешит! На свет!


Проигрыш.


Ты не понял одно: не все ли равно
Кто первый встанет на край и полетит на дно?
Кто не умеет так, пускай спокойно спит
А мы пойдем туда, где нас любой простит
        Am            Am7       Hm*           Hm7*
И не услышим смех...       за его спиной...
        Am            Am7       Hm*           Hm7*
                           Поговори со мной...     О том, что 
       
                      
На теплый Свет и птица летит
И зверь бежит, и человек спешит! На свет!


Проигрыш.


Аккорды:

  Am7 Am* Hm7* Am^ Hm* Dm*
e|-3---0---5----0---0---0-
B|-1---1---3----1---3---3-
G|-2---3---4----3---4---2-
D|-2---2---4----3---4---0-
A|-0---0---0----0---0---0-
E|-0---0---x----0---x---0-

Понравилась песня "Луг золотой" ?

Поделись с друзьями:
0

Привет, гитарист!

Пройди супер-курс по гитаре и порази всех своей игрой!

Забрать курс!
ВАМ ПОДАРКИ ОТ ПРОЕКТА
"ГИТАРНАЯ РЕВОЛЮЦИЯ"