Пилот - Лимита - аккорды и текст песни

Вступление: 

A | C | D | G
Asus2 | Asus2


Asus2                  Asus2/D
Спят, уткнувшись носом в хвосты
     Asus2           Dsus4 D7
Подоконников сторожа
Им буду петь я про сказочные страны
Про чужие берега


В воздушных ямах руками размешаю
Цвет ирландских облаков
Амнезию плывущих льдов
Чудеса совпадения


C                   D
У таких как мы защита одна
E               G
Обогреет и накормит Весна


                A | C | D | G
           Лимита            


Проигрыш: Asus2 | Asus2


Идут за мною белые медведи
Тишина их шагов звенит
В мягких лапах мирно дремлют символы
Египетских пирамид


Хвосты енотов завлекут врагов
Под оскаленные клыки
Посрывают сердец замки
Нехитрые мои слова


Соло:

G|------9-8----------------------------------|
D|-/6-------9---2-4---2----------------------|

G|------9-8----------------------------------|
D|-/6-------9---2-4---9----------------------|

G|------9-8----------------------------------|
D|-/6-------9---2-4---2----------------------|

G|------9-8-----------9---11-----------------|
D|-/6-------9---2-4--------------------------|

Понравилась песня "Лимита" ?

Поделись с друзьями:
0

Привет, гитарист!

Пройди супер-курс по гитаре и порази всех своей игрой!

Забрать курс!
ВАМ ПОДАРКИ ОТ ПРОЕКТА
"ГИТАРНАЯ РЕВОЛЮЦИЯ"