Пилот - Альтернативный Новый Год - аккорды и текст песни

A+7
Однажды я шел по улице
        D+7 
И вдруг вспомнил, что сегодня - Новый год!
A+7
Я уже успел забыть, как празднуют
                             D+7
Нормальные люди этот праздник! Вот!
      A+7
К примеру: мои друзья нажираются водкой
      D+7  
И падают под стол
         A+7
Поэтому я считаю, что я все-таки
            D+7
Лучший выход нашел!


A5 A5 C5 C5 D5  D5  D#5 D5 - A5 A5 G5 G5 F#5 F#5 F#5 F#5 


Йе-е-е-е: сижу на игле!


Обычный Новый год - это брызги шампанского
И глупые сказки, а потом...
...подпитые девчонки начинают строить глазки
тем, кто поближе. Потом: ниже: и ниже
А поутру начинаются вопросы
"Леночка, что за слезы?!
Простите, вы не Леночка?! Вы Катрин?"
И только я за дверью сижу один


Йе-е-е-е: сижу на игле!


E||--------------------------------|--9-9-9-9-7-7-7-7---------------------||
H||--5-0-5-0-5-0-5-7--5--0-5-7-7-7-|------------------10-10-10-10-7-7-7-7-||


Но ничего, скоро я вылечусь
и стану такой как все!
Буду ходить, улыбаться, и буду говорить везде:
"Здравствуйте-c!
Садитесь пожалуйста! Как вас зовут?
Вы знаете, меня долгие зимы совсем не прут!
С головой, знаете ли, не дружу
Сижу себе и сижу!"


Йе-е-е-е: сижу на игле!


Аккорды:

 A+7                     D+7
|----44--4--44---|      |----22--2--23---|
|----22--2--22-0-|      |----22--2--23-0-|
|----------------|      |----------------|
|----------------|      |-0--------------|
|-0--------------|      |----------------|
|----------------|      |----------------|

Понравилась песня "Альтернативный Новый Год" ?

Поделись с друзьями:
0

Привет, гитарист!

Пройди супер-курс по гитаре и порази всех своей игрой!

Забрать курс!
ВАМ ПОДАРКИ ОТ ПРОЕКТА
"ГИТАРНАЯ РЕВОЛЮЦИЯ"