Пилот - 100$ - аккорды и текст песни

4|-2-----------------------------------
3|---2---------------------------------
2|-----0-1-3-1-3-------------------3-1-
1|---------------0---------8-7-5-0-----

4|-2-----------------------------------
3|---2---------------------------------
2|-----0-1-3-1-3---3-1-------------3-1-
1|---------------0-----0---8-7-5-0-----

Am | F | C | E (1 гитара)

Дождик, гад ползучий, мерзкий, доставучий,
Долбит всю дорогу по мозгам!
Ночь с мурлом селедки держит нож у глотки,
Преграждая путь моим стихам!

Боги и кастрюли, звезды и огрызки,
Ни за что на вас я не сержусь!
Ни хрена не вижу! Ни черта не слышу!
Не за что давно, но я держусь!

Если ты еще помнишь меня,
Если я еще дорог тебе,
Если ты не совсем ожирел,
Если ты сейчас на коне,
Вышли 100$ , брат! Оуо...
Вышли 100$ , гад! Оуо... е-е-е...

Дворник выметает все, что не летает,
Все, о чем не стоит говорить!
А сирены воют, а старушки лают,
Старый город продолжает жить!..

Жить и ждать кого-то больше и вкуснее,
Проще и больнее, чем Иисус...
Ни шиша не помню, ни во что не верю!
Не за что давно, но я держусь!

Припев.

Понравилась песня "100$" ?

Поделись с друзьями:
0

Привет, гитарист!

Пройди супер-курс по гитаре и порази всех своей игрой!

Забрать курс!
ВАМ ПОДАРКИ ОТ ПРОЕКТА
"ГИТАРНАЯ РЕВОЛЮЦИЯ"