Пикник - Взгляд туманный пьет нирвану - аккорды и текст песни

Вступление:

Overdrive+Wah:
e[-------------------------------------|
H[-------------------------------------|
G[-------------------------------------|
D[-------1-------1-------4s2-2-1-------|
A[-2---2---1---1-------2---------4-----|
E[---2-------1-----4-4-------------7s5-|

Bass:
G[---------------------------------------|
D[-------------------------2-2-2-1-------|
A[-2---2-2-1---1-1-------2---------4-2p0-|
E[---2-------1-----4-4-4-----------------|

Keyboard (or clean guitar):
e[-------------------|
H[-------------------|
G[-----4-----3-----1-|
D[-1-4---1-3-----1---|
A[-------------2-----|
E[-------------------|


H                D#m
Моя крошка на столе
C#m            F#
Снова спляшет танец мне
  H
Две колонки
C#m              F#
Звук негромкий, ммм


Вместо ламп луна в окне
Тихо светит. Эй же эй
Взгляд туманный
Пьет нирвану


Вот они, ступени вниз
Эй же эй. На миг очнись
Свет неяркий
Что ж так жарко? Ммм


Падай в сладкую волну
Моя крошка, ну же, ну
Взгляд туманный
Пьет нирвану


(во время соло)

Взгляд туманный
Взгляд туманный


Крошка пляшет на столе
Шепот стен, Луна в окне
Две колонки
Звук негромкий, ммм


Падай в сладкую волну
Моя крошка, ну же, ну
Взгляд туманный
Пьет нирвану


Overdriven In Break:
e[-----------------|
H[-----------------|
G[-----------------|
D[-5-3-6-4-----4-3-|
A[---------6-4-----|
E[-----------------|

Понравилась песня "Взгляд туманный пьет нирвану" ?

Поделись с друзьями:
0

Привет, гитарист!

Пройди супер-курс по гитаре и порази всех своей игрой!

Забрать курс!
ВАМ ПОДАРКИ ОТ ПРОЕКТА
"ГИТАРНАЯ РЕВОЛЮЦИЯ"