Окуджава Булат - Грузинская песня - аккорды и текст песни

 1.
      Am                               Dm   
Виноградную косточку в теплую землю зарою,
     G                               C   E
И лозу поцелую, и спелые гроздья сорву...
       Am                                  Dm
И друзей созову, на любовь свое сердце настрою...
    E                                 Am
А иначе зачем на земле этой вечной живу?..

 2.
     C                              Dm
Собирайтесь-ка гости мои на моё угощенье,
     G(7)                                   C   E
Говорите мне прямо в лицо кем пред вами слыву!
        Am                                  Dm
Царь небесный пошлет мне прощенье за прегрешенье...
    E                                 Am*
А иначе зачем на земле этой вечной живу?..

 Соло 1.
  Am*                E                         Am
   1&2&3&4&5 & 6 &   1 & 2 & 3 & 4 & 5 & 6 &   1 &...
1:-----------------|-------------0-----------|--------
2:-------------3-1-|-0-------0-0-------------|--------
3:-----------------|-----------------1-----1-|-2------
4:-----------------|-------------------------|--------
5:-----------------|-------------------------|--------
6:-----------------|-------------------------|--------
 * - Соло начинаетcся с затакта в последнем такте куплета.


 3. (Вступает синтезатор аккордовыми нотами и соло гитара).

          Am                                   Dm
В темно-красном своем для меня будет петь моя Дали,
         G                               Am
В черно-белом своем преклоню перед нею главу,
      Am                            Dm
И заслушаюсь, я и умру от любви и печали...
    E                                 Am
А иначе зачем на земле этой вечной живу?..

 4.
      C                                Dm
И когда заклубится закат по углам заметая,
        G                                    C   E
Пусть опять и опять предо мной проплывут наяву
       Am                                 Dm
Белый буйвол, и синий орел, и форель золотая...
    E                                 Am**
А иначе зачем на земле этой вечной живу?..

 Соло 2.
   Am**                       Am
   1 & 2 & 3 & 4 & 5 & 6 &    1 & 2 & 3 & 4 & 5 & 6 &
1:-------------------------||-------------------------|
2:-----------------------0-||-1-----------------0---1-|
3:---------------------2---||-------------------------|
4:-------------------------||-------------------------|
5:-------------------------||-------------------------|
6:-------------------------||-------------------------|

   Dm                        G
   1 & 2 & 3 & 4 & 5 & 6 &   1 & 2 & 3 & 4 & 5 & 6 &
1:-0---------------------0-|-1-------------------3-1-|
2:-----3---------------3---|-------------------------|
3:-------------------------|-------------------------|
4:-------------------------|-------------------------|
5:-------------------------|-------------------------|
6:-------------------------|-------------------------|

   Am                        C
   1 & 2 & 3 & 4 & 5 & 6 &   1 & 2 & 3 & 4 & 5 & 6 &
1:-0-------------------0-1-|-3-----------------5---3-|
2:-------------------------|-------------------------|
3:-------------------------|-------------------------|
4:-------------------------|-------------------------|
5:-------------------------|-------------------------|
6:-------------------------|-------------------------|

   G                         G
   1 & 2 & 3 & 4 & 5 & 6 &   1 & 2 & 3 & 4 & 5 & 6 &
1:-1---3-1-------------1-0-|-1-1-0-1-------------1-0-|
2:-------------------------|-------------------------|
3:-------------------------|-------------------------|
4:-------------------------|-------------------------|
5:-------------------------|-------------------------|
6:-------------------------|-------------------------|

   C           E
   1 & 2 & 3 & 4 & 5 & 6 &   
1:-1-----------------------||
2:-------------------------||
3:-------------------------||
4:-------------------------||
5:-------------------------||
6:-------------------------||

 5. (С синтезатором и соло-гитарой).

      C                                Dm
И когда заклубится закат по углам заметая,
        G                                    C   E
Пусть опять и опять предо мной проплывут наяву
       Am                                 Dm
Белый буйвол, и синий орел, и форель золотая...
    E                                 Am**
А иначе зачем на земле этой вечной живу?..

 Партию соло-гитары в 3, 4 и 5 куплетах я пока,
 увы, не подобрал. В принципе, эта вещь играется
 на двух гитарах, а написанный мною подбор можно
 играть и на одной.

 Сюда нужно вписать пропущенные соло (в куплетах):

   1 & 2 & 3 & 4 & 5 & 6 &   1 & 2 & 3 & 4 & 5 & 6 &
1:-------------------------|-------------------------|
2:-------------------------|-------------------------|
3:-------------------------|-------------------------|
4:-------------------------|-------------------------|
5:-------------------------|-------------------------|
6:-------------------------|-------------------------|

Понравилась песня "Грузинская песня" ?

Поделись с друзьями:
0

Привет, гитарист!

Пройди супер-курс по гитаре и порази всех своей игрой!

Забрать курс!
ВАМ ПОДАРКИ ОТ ПРОЕКТА
"ГИТАРНАЯ РЕВОЛЮЦИЯ"