Наутилус Помпилиус - Крылья - аккорды и текст песни

Em   H7  Am   H7
Em   H7  Am   H7

 Em                            H7
Ты снимаешь вечернее платье, стоя лицом к стене,
   Am                    H7
И вижу свежие шрамы на гладкой, как бархат, спине.
Мне хочется плакать от боли или забыться во сне.
Где твои крыльа которые так нравились мне?

         F        Em      F                Em
       Где твои крылья которые нравились мне?
         D        Em      D                Em
       Где твои крылья которые нравились мне?

Раньше у нас было время, теперь у нас есть дела
Доказывать, что сильный жрет слабых, доказывать, что сажа бела.
Мы все потеряли что-то на этой безумной войне.
Кстати, где твои крылья, которые нравились мне?

        Где твои крылья, которые нравились мне?
        Где твои крылья, которые нравились мне?

Я не спрашиваю, сколько у тебя денег, не спрашиваю,
                                                  сколько мужей.
Я вижу, ты боишься открытых окон и верхних этажей.
И если завтра начнется пожар, и все здание будет в огне,
Мы погибнем без этих крыльев, которые нравились мне.

        Где твои крылья, которые нравились мне?
        Где твои крылья, которые нравились мне?

Интро:

E|---7--5--3--2--5--3--2--2--5--3--2--0----------|
B|----5--5--5--5--4--4--4--4--5--5--5--5-4---3-4-|
G|-----4--4--4--4--4--4--4--4--5--5--5--5-4-5-54-|
D|-----------------------------------------4---4-|
A|-----------------------------------------------|
E|-----------------------------------------------|
Это куплет (2 раза)

E|---3--3--3--3--3--3--3--3--2--2--3--3--2--2323-|
B|----5--5--5--5--5--5--5--5--1--1--5--5--1----5-|
G|-----5--5--4--4--5--5--4--4--2--2--4--4--2---4-|

Понравилась песня "Крылья" ?

Поделись с друзьями:
0

Привет, гитарист!

Пройди супер-курс по гитаре и порази всех своей игрой!

Забрать курс!
ВАМ ПОДАРКИ ОТ ПРОЕКТА
"ГИТАРНАЯ РЕВОЛЮЦИЯ"