Мумий Тролль - Забавы - аккорды и текст песни

Вступление: Cm


Cm		Cm
Мне бы твои пули
Cm		   Cm
Переплавить в струны
Cm		 Cm
Может быть другая песня
G#	      G	
Получилась бы

Cm	      Cm	
Ты б её послушал
Cm	      Cm	
Девушке поставил
Cm	      Cm	
Может станцевал бы
   G#         G
Только всё равно


Припев:

G#        G#
У тебя забавы
A# A#        Fm
Утром всё забыл
             Fm
Музыка сорвалась
G  G      Cm
Ты меня убил


   Cm                G#      G        Cm               G#      G       Cm
B|-1---------------|-1-------0-------|---------------|---------------|-1-
G|-----------------|-----------------|-0-------------|-1-------0-----|---


Cm	    Cm	
Так вот за секунду
Cm	      Cm	
Наступает тихо
Cm	      Cm	
Ветер лучше слушай
G#           G
Он такой крутой


Cm	      Cm	
Лязг и визг и время
Cm	      Cm	
Если остановишь
Cm	      Cm	
Ты его потикать
G#             G
Не забудь меня

Припев.

Соло:

   Cm	           Cm	           Cm	            Cm	
E|---------------|-------------8-|---------------|----------11----|
B|---------------|-----------8---|---------------|-------------13-|
G|-5-------------|---------8-----|---------------|----------12----|

   Cm	           Cm	           G#               G
B|---------------|---------------|---------------|-----------------|
G|---------------|---------------|-8-------------|-7---------------|

   Cm	           Cm	           Cm	            Cm	
E|---------------|---------------|-11------------|------------11---|
B|---------------|------------13-|---------------|--------------13-|
G|-8-------------|----------12---|---------------|-----------12----|

   Cm	           Cm	           G#               G
B|---------------|---------------|---------------|-----------------|
G|---------------|---------------|-8-------------|-7---------------|

Понравилась песня "Забавы" ?

Поделись с друзьями:
0

Привет, гитарист!

Пройди супер-курс по гитаре и порази всех своей игрой!

Забрать курс!
ВАМ ПОДАРКИ ОТ ПРОЕКТА
"ГИТАРНАЯ РЕВОЛЮЦИЯ"