Мумий Тролль - Недопонимающая - аккорды и текст песни

Вступление:

e|--8-8-5-5-----------8--5----------8--5----------|
B|----------8-8-6--8----------6--8----------6-\3--|

e|--8-8-5-5-----------8--5----8-13-12--13----------10--|
B|----------8-8-6--8-----------------------13--10------|


F                    Am
Если б ветром я бы в море стал
Dm                    Bb
Раскрошил бы чуть прибрежных скал
F                     Am           
Положил бы пару кораблей вверх дном 
       Dm       Bb
В этот выходной


Удивишься что такой безумный я 
Сиганул на материк вроде не с буя 
Вроде не нетрезв так что же радость ты моя
Недопонимаю


Это я тебе танцую так
Ты в ладоши хлопнешь воскликнешь - Ах!
Сердца твоего отгрызть значит удалось мне
Лакомке


Всё предельно честно
На девятый вал
Робкими глотками смаковал
Почти все знал минул объехал
Твой хулиган
Пробирался таки


Припев:

Недопонимающая


Клоун сдаст все секреты цирка
В подарок свистнет любимую копилку
Здесь меня нет и ты не моя
И я тоже недопонимаю


e|--8-8-5-5-----------8--5----------8--5----------|
B|----------8-8-6--8----------6--8----------6-\3--|

e|--8-8-5-5-----------8--5----8-13-12--13----------10--8-6--8--|
B|----------8-8-6--8-----------------------13--10--------------|

e|------------9-----------10-------------------------------------| x2
B|--10--8-10-----10--8-10-----10--8-10---13---10---8--10--13-13--|


Припев:

Недопонимаю что-то я


e|--8-8-5-5-----------8--5----------8--5----------|
B|----------8-8-6--8----------6--8----------6-\3--|

e|--8-8-5-5-----------8--5----8-13-12--13----------10--|
B|----------8-8-6--8-----------------------13--10------|

Понравилась песня "Недопонимающая" ?

Поделись с друзьями:
0

Привет, гитарист!

Пройди супер-курс по гитаре и порази всех своей игрой!

Забрать курс!
ВАМ ПОДАРКИ ОТ ПРОЕКТА
"ГИТАРНАЯ РЕВОЛЮЦИЯ"