Мумий Тролль - На удачу - аккорды и текст песни

e|--3--5--3--1--3--3--|--3--5--3--1--------|--1-----1--5--4--4--|--4--0--4--0--5----|
B|--------------------|--------------3--3--|-----3--------------|-------------------|


       Dm                 Am
e|--------1--0----|--------0--------|
B|----------------|-----------0--1--|
G|-----2----------|-----2-----------|
D|--0-------------|-----------------|
A|----------------|--0--------------|
E|----------------|-----------------|


Dm      Am
Открыты все дороги,
Dm       Am
Размечены пути.
F      G    Am  
Рвать когти, делать ноги
    F        E
Нет, лучше полетим.
  

Пусть карты не надежны,
Не обозначены задачи,
Пред нами мира все надежды,
Все нипочем, и мы не плачем


Припев:

         Dm             Am
Нананана на на нананана на на
         F                 E
На удачу чу чу на на на на на


Все все эти шансы,
Все те два из ста.
И те здесь словно иностранцы,
Как будто виза им нужна.


Усталый, но счастливый,
Мои глаза - смотреть откройтесь!
Бензин остался, еще есть силы,
Будет утро, значит и сочтемся.


Припев:

         Dm             Am
Нананана на на нананана на на
         F                 G
На удачу чу чу на на на на на

Понравилась песня "На удачу" ?

Поделись с друзьями:
0

Привет, гитарист!

Пройди супер-курс по гитаре и порази всех своей игрой!

Забрать курс!
ВАМ ПОДАРКИ ОТ ПРОЕКТА
"ГИТАРНАЯ РЕВОЛЮЦИЯ"