Мумий Тролль - Глубже - аккорды и текст песни

1)--------------------------------------------------|
2)--5-6-6--5-8-5-------6-6--------------------------|
3)-7------------5---5-5----8-5-7---7-8-7-7-5-5-----5|
4)-------------------7------8-----------------8-7-8-|   
5)--------------------------------------------------|
6)--------------------------------------------------|


 Bb                      F
Как ты только мне не улыбаешься
  Cm           Dm            Gm  F
Светишься так сильно, что горишь
 Bb                         F   
Мучатся придется - не стесняюсь я
    Cm                Dm          Gm       Dm  
Сказать о том, что сегодня я оставляю тебе Север
  F
Джунгли были заняты уже 


Припев:

        Eb(Сm)        F             Gm
Уже не больно и ты довольна, уже получше
         Eb(Cm)        F                  Gm
Тебе не больно и ты довольна, а мне б поглубже
Eb(Cm)  F  Gm
       Не скучно.
 

2)-8-8-8-8-6----|
3)-----------7--| Соло припева
4)------------8-|


Длинной ночью может фантастичней быть
Ну больше сновидений или грез


2)-------6-4-3-1-
3)-0-0-3--------2


Можно полярным ожить сиянием
И прогореть, как вышки 
Договоримся
Так успеем
Ждет королевский праздничный пирог


Уже не больно и ты довольна уже получше
Тебе не больно и ты довольна, а мне б поглубже
Уже не больно и ты довольна тебе получше
Не скучно

Понравилась песня "Глубже" ?

Поделись с друзьями:
0

Привет, гитарист!

Пройди супер-курс по гитаре и порази всех своей игрой!

Забрать курс!
ВАМ ПОДАРКИ ОТ ПРОЕКТА
"ГИТАРНАЯ РЕВОЛЮЦИЯ"