Marley Bob - No woman no cry - аккорды и текст песни

C  G/B       Am  F
No woman no cry
C  G/B       Am  G
No woman no cry
C  G/B       Am  F
No woman no cry
C  G/B       AM  G
No woman no cry


          C       G/B    Am              F
Cos, cos, cos I remember when we used to sit
 C         G/B          Am         F
In a government yard in Trenchtown
C        G/B        Am         F
Obba, observing the hypocrites
C               G/B            Am   F
Mingle with the good people we meet
C               G/B
Good friends we have
    Am                   F
Oh, good friends we have lost
C G/B      Am  F
A-long the way
C             G/B
In this great future
    Am                F
You can't forget your past
C           G/B      Am  F
So dry your tears, I say


No woman no cry
No woman no cry
Little darling, don't shed no tears
No woman no cry


Said I remember when we use to sit
In the government yard in Trenchtown
And then Georgie would make the fire lights
I say, log a would a burnin' through the nights
Then we would cook cornmeal porridge, I say
Of which I'll share with you (yeah)
My feet is my only carriage
And so I've got to push on through
Oh, while I'm gone


Everything 's gonna be alright
Everything 's gonna be alright


No woman no cry
No woman no cry


I say little darlin
Don't shed no tears
No woman no cry


Solo: played with wah effect

G          C           G/B             Am             F                  C
---------------------------------------13-15---------------------------------|
----------------------------13-15b(17)-------(17)-13-------------------------|
----1412-------------12-14---------------------------14-12------------------|
-----------10--12/14----------------------------------------1412-10--12/14--|
-----------------------------------------------------------------------------|

        F                 C        G                  C         G/B
------8-----------------------8----------------------------------------------|
--------8h10--8h10p8----10----8h10p8---10--1110--10--8-------8--------------|
---------------------10----------------------------------9-------------------|
--14~--------------------------------10--10-----10---------10-----------10---|
-------------------------------------------------------------------12--------|
-----------------------------------------------------------------------------|


--------------------------------------------15b(17)---15---13-12----12-------|
------------------13-15-13--13-----13-15-13----------------------15----13----|
------------12-14--------------14-----------------------------------------14-|
--12/14--14------------------------------------------------------------------|
-----------------------------------------------------------------------------|
-----------------------------------------------------------------------------|


----------8-----------------------------------------------------------------)
-13~----8h10--8h10p8----8--------8-----------8-10-8--10----8h10-8h10p8------)
---------------------10--------7-------5-7/9---------------------------10-9-)
--------------------------9h10-----5/7------------------10------------------)
----------------------------------------------------------------------------)
----------------------------------------------------------------------------)


Chords:

C: 0  G/B: x  Am: 0  F: 1  G: 3
   1       3      1     1     0
   0       0      2     2     0
   2       0      2     3     0
   3       2      0     3     2
   0       x      x     1     3

Понравилась песня "No woman no cry" ?

Поделись с друзьями:
0

Привет, гитарист!

Пройди супер-курс по гитаре и порази всех своей игрой!

Забрать курс!
ВАМ ПОДАРКИ ОТ ПРОЕКТА
"ГИТАРНАЯ РЕВОЛЮЦИЯ"