Люмен - Свобода - аккорды и текст песни

Вступление:

    Gm          F           C                
E||-----------|-----------|----------|------|
H||---3-------|-----------|----------|------|
G||------5--3-|-2---------|----------|------|
D||-----------|----5-3--5-|----5-5---|------| 
A||-----------|-----------|-3--------|------|
E||-----------|-----------|----------|------|


Gm             F                   C               C/E    C/F
Это как будто сердце в тиски, как будто за миг побелели виски
Как будто на тебя накатила усталость, и от тебя самого ничего не осталось
Как будто был голос, но связки порвались, как будто мечта унеслась быстро ввысь
Когда у тебя отбирают свободу, остается лишь ненависть, ненависть, ненависть


Припев:

Dm       F               Em7            A
Я  задыхаюсь, мне все теснее с каждым годом
       F                       Em7     A
Я широко раскрыл глаза, но не могу найти свободу


Проигрыш:
                               
    Gm         F         C
H||----------|---------|-------|---------|
G||0h2---2---|---------|-------|---------|
D||--------5-|-3-----3-|-3^-5--|----5^-3-|
A||----------|-----5---|-------|---------|

    Gm         F         C                                              
  |----------|---------|-------|---------||
  |-2----2-5-|---------|-------|---------||
  |----------|-3---5-3-|-5-----|---------||
  |----------|---------|-------|---------||


За свободу можно второй раз родиться, сдохнуть тысячу раз, но не опуститься
Бороться и драться, проиграть, но не сдаться, идти много лет, но все же добраться
Шагая один, или братья по разуму, тебе повторяют все время "Держись"
Но когда у тебя ее отбирают, остается лишь ненависть, ненависть, ненависть


Припев:

Dm       F               Em7            A
Я  задыхаюсь, мне все теснее с каждым годом
       F                       Em7     A
Я широко раскрыл глаза, но не могу найти свободу

Dm F Em7     A
         Найти свободу


Окончание: Dm | F | Em7 | A | Dm | F | Em7 | A | Gm

Понравилась песня "Свобода" ?

Поделись с друзьями:

Аккорды других песен "Люмен" :

все песни »
0

Привет, гитарист!

Пройди супер-курс по гитаре и порази всех своей игрой!

Забрать курс!
ВАМ ПОДАРКИ ОТ ПРОЕКТА
"ГИТАРНАЯ РЕВОЛЮЦИЯ"