Люмен - Дыши - аккорды и текст песни

Вступление:

    Dm                           C/9
E||----------------------------|---------------------------||
H||----------------------------|------3---------3----------||
G||5/7----7----7----7--7---7-5-|-----------5-------5---5-5/||
D||----7---------7-------7-----|---7---------7-------7-----||

    Hm-5                         B
E||----------------------------|---------------------------||
H||----------------------------|------3---------3----------||
G||5/7----7----7----7--7---7-5-|-----------5-------5---5-5/||
D||----7---------7-------7-----|---7---------7-------7-----||


Dm                         C/9 
     Я слышу как в ночи устали серые дома
Hm-5                        B 
     Им стало слишком тесно,  они так много знают
     За стенкой в тишине один и тот же крик
     И в сотый раз по кругу, кому-то повторяют


Припев:

Asus4   B+7       
Дыши! Дыши!


Проигрыш: Dm | C/9 | Hm-5 | B


     Dm              
Ненадежные стены панельных строений 
    C/9
Впитали в себя вкус побед и поражений
   Hm-5
И харкнули это и себя наружу 
  B                Gm
Прямо мне в душу прямо тебе в душу
    Dm 
Никуда не убежать от соседского уха
    C/9
Но оно, поверь, будет безнадежно глухо
  Hm-5
Когда  над тобой начнут колдовать
    B                    Gm
И кто-то тебе будет повторять и повторять


Припев:
      
Дыши! Дыши!


Проигрыш: 

D5 | D5 | F5 | C5 
D5 | D5 | F5 | G5 F5 
D5 | D5 | F5 | C5
B5 | A5 | B5 | A5


D5
   Я ничего не слышу, я затыкаю уши
   Я ничего не знаю, и мне никто не нужен

D5                    F5    C5
   Я ничего не слышу, я затыкаю уши       
D5                   F5       G5          F5
   Я ничего не знаю, и мне никто не нужен
D5                    F5     C5
   Я ничего не слышу, я затыкаю уши    
B5        A5          B5      A5       
   Я ничего  не знаю, и мне никто не нужен

Понравилась песня "Дыши" ?

Поделись с друзьями:
0

Привет, гитарист!

Пройди супер-курс по гитаре и порази всех своей игрой!

Забрать курс!
ВАМ ПОДАРКИ ОТ ПРОЕКТА
"ГИТАРНАЯ РЕВОЛЮЦИЯ"