Ленинград - Зенит - аккорды и текст песни

Бас-вступление:

5|-3-----3-----3-----3--023--
6|----3-----3-----3----3-----


Riff A:

     C				    G 
1-------------------------------------
2|---1-1--1-1---3-5-3-1------1-1--1-3--5-3-1-0----

     G				   C
1----------------------------------
2|---1-1--1-1---3-5-3-1-------3--3-5--3-1-1-1--


Зенит!
Футбол!
Зенит!
Футбол!


Riff B:

1|--------8---------------8---------------8---------------
2|-8-8--8------8-8-8-8--8----------8-8--8-----8-8-8-8-8-8-


Riff A.


Зенит!
Футбол!
Хоккей!
Налей!


 C                           G
Ты и я, ты и я, любим мы футбол
(G)                            C
Ты кричишь, я кричу, надо-надо гол
(C)                               G 
Ты кричишь - надо гол, я кричу - надо гол
(G)                              C
Стой! (стой) как его, надо-надо-надо гол


Riff A.


Зенит!
Футбол!
Зенит!


И на стадион вдвоем мы с тобой всегда идем
Потому что ты и я - закадычные друзья
Ты болеешь за Зенит, я болею за Зенит
Мы болеем за Зенит и Зенит всех победит


Riff A.


Кто болеет за Зенит у того всегда стоит


Riff B.

Понравилась песня "Зенит" ?

Поделись с друзьями:
0

Привет, гитарист!

Пройди супер-курс по гитаре и порази всех своей игрой!

Забрать курс!
ВАМ ПОДАРКИ ОТ ПРОЕКТА
"ГИТАРНАЯ РЕВОЛЮЦИЯ"