Ленинград - Дороги - аккорды и текст песни

Проигрыш перед каждым куплетом:

     E  Am              
E||-----0--------|
B||-----1--------|
G||--1--2--------|
D||--2--2--------|
A||--2--0--------|
E||--0-----------|


       Am                    Dm
Я всегда уходил, чтоб не вернуться
       E                     Am
Я всегда уходил, чтоб навсегда
Иногда так хотелось оглянуться
Иногда - это только иногда


   Am          Dm
Дороги мои, дороги         
     E              Am         
Выносили ноги, помогали боги


Иногда я ходил в никуда
Никогда не ходил по прямой
А в пути мне светила звезда
Выручал же всегда ангел мой


Дороги мои, дороги             
Выносили ноги, помогали боги


И любили меня, и сдавали
И старуха махала косой
И в залетную мне не давали
А в финале мой путь стал взлетной полосой


Дороги мои, дороги                 
Выносили ноги, помогали боги


Рифф после припева перед куплетом:

E||-----------------------|------------------|----------------------------|
H||--6----6-4--------6----|--4--6----7----7--|--6------------------4----6-|
G||-----------6-3---------|------------------|----8-6-5----8----6---------|
D||-----------------------|------------------|----------------------------|
A||-----------------------|------------------|----------------------------|
E||-----------------------|------------------|----------------------------|


Соло в конце песни:
                                                     
e||--5-5-5-5~---------7~-|--8/---12--|--5/---8----7/---10----|--7----7----7----7----|--8----7----5----||
H||----------------------|-----------|-----------------------|----------------------|-----------------||
G||----------------------|-----------|-----------------------|----------------------|-----------------||
D||----------------------|-----------|-----------------------|----------------------|-----------------||
A||----------------------|-----------|-----------------------|----------------------|-----------------||
E||----------------------|-----------|-----------------------|----------------------|-----------------||

Понравилась песня? - Расскажи друзьям:

Аккорды других песен исполнителя "Ленинград" :

все песни "Ленинград"
0