Кузя - Общага (шняга шняжная) - аккорды и текст песни

   Em D Am Em D Am
 E|--------0---2---------------------|--------0---2--------------------0-----|
 H|------0-------3---3--------0h1p0--|------0-------3---3--------0h1p0---1---|
 G|----0-----------2--------2--------|----0-----------2--------2-----------2-|
 D|------------0----------2----------|------------0----------2---------------|
 A|---------------------0------------|---------------------0-----------------|
 E|--0-------------------------------|--0------------------------------------|

     C D
 E|------------0---------------2h3p2--|
 H|--------1-----1---------3----------|
 G|------0---------0-----2------------|
 D|----2---------------0--------------|
 A|--3--------------------------------|
 E|-----------------------------------|

 Em D Am
  Я три года в общаге,
  Я в ней ем и в ней сплю,
  Я дружу в ней с друзьями,
 C D
  И с девчонкой мучу.

 Могут выселить, гады,
 Комендант у нас зверь,
 Каждый день то засада,
 То потеря потерь.

    C
  Шняга шняжная, жизнь общажная,
   Em
  Беспонтовая, но кайфовая
   C Em
              У-у-у-у-у...

  Жизнь общажная алкогольная,
  Так то шняжная, то прикольная
              У-у-у-у-у...

Отправитель: Полина, selskaya-polina@mail.ru

Понравилась песня "Общага (шняга шняжная)" ?

Поделись с друзьями:
0

Привет, гитарист!

Пройди супер-курс по гитаре и порази всех своей игрой!

Забрать курс!
ВАМ ПОДАРКИ ОТ ПРОЕКТА
"ГИТАРНАЯ РЕВОЛЮЦИЯ"