Король и Шут - Воспоминания о былой любви - аккорды и текст песни

Вступление:

                      ||--------0-2-|
                      ||--0-1-3-----|
                      ||o-----------|
                      ||o-----------|
                      |-|
                      |-|

  Em              Am                 
|--3-----2h0---------------------0--|
|----0---------0---1---------1p3----|
|------0-----0---0---2---0p2--------|
-----------2------------|
-------0----------------|
|--0--------------------------------|
  D                 G
|-2-----2p3h2---0-------------------|
|---3---------3---0-3-----0h1---3---|
----------0-------0---0-|
|-0---------------------0-----------|
------------------------|
--------3---------------|

   C               A               
|--0--------------------------------|
|----1---3p1---0---1-----0----------|
|------0-----0---0---2-----2---0----|
-----------2-----2---2--|
|--3---------------0----------------|
------------------------|

  H7
|--2--------2-----------2h3p2--(2)-||
|-----0--------0-----0-------------||
|--------2--------2---------------o||
----------------------o||
|--2-------------------------------||
-----------------------||


Em            Am D               G/Hm
Дремлет за горой, мрачный замок мой
C        Am           H
Душу мучает порой, царящий в нем покой
Я своих фантазий страждущий герой
А любви моей живой все образы со мной


           Em           Am        D          G/Hm  C
	Я часто вижу страх в смотрящих на меня глазах
        H   Am        D              G/Hm
	Им суждено уснуть в моих стенах
	    C             Am
	Застыть в моих мирах
            Em           Am   D          G/Hm C
	Но сердце от любви горит, моя душа болит
        H  Am         D             G/Hm
	И восковых фигур прекрасен вид
	   C           Am  H
	Покой везде царит


Я их приводил в свой прекрасный дом
Их вином поил и развлекались мы потом
Иногда у них легкий был испуг
От прикосновений к нежной шее крепких рук


Я часто вижу страх в смотрящих на меня глазах
Им суждено уснуть в моих стенах
Застыть в моих мирах
Но сердце от любви горит, моя душа болит
И восковых фигур прекрасен вид
Покой везде царит


Вот несет одна мне свои цветы
Вот стоит другая, погруженная в мечты
Я пытался их до смерти рассмешить
Но пришлось. как в старой сказке, просто задушить


Я часто вижу страх в смотрящих на меня глазах
Им суждено уснуть в моих стенах
Застыть в моих мирах
Но сердце от любви горит, моя душа болит
И восковых фигур прекрасен вид
Покой везде царит

Понравилась песня "Воспоминания о былой любви" ?

Поделись с друзьями:
0

Привет, гитарист!

Пройди супер-курс по гитаре и порази всех своей игрой!

Забрать курс!
ВАМ ПОДАРКИ ОТ ПРОЕКТА
"ГИТАРНАЯ РЕВОЛЮЦИЯ"