Король и Шут - Веселые Тролли - аккорды и текст песни

A
-------------------------------------------------------
-------------------------------------------------------
-------------------------------------------------------
----------5-------------------------5-------------9~~--
------7-8---8-7-8-7-8-7-8-------7-8---8-7-8-7-8-7------
--7-8-----------------------7-8------------------------


Далее первый куплет:

Вокруг холмы, леса, овраги и луга
-----------------------------------
-----------------------------------
-----------------------------------
----------------5------------------
----------7-8------8--7-8-7-8--7-8-
--7--8-----------------------------

И вдоль дороги рыжие стоят стога...

-----------------------------------
-----------------------------------
-----------------------------------
-------------5------------------9~~
---------7-8---8--7-8-7--8---7-----
-7--8------------------------------

И ярко светит солнце в небе голубом

-----------------------------------
-----------------------------------
-----------------------------------
----------------5------------------
---------7-8------8----7-8-7-8--7-8
-7--8------------------------------

Ему навстречу радостно мы все идем...

-----------------------------------
-----------------------------------
-----------------------------------
----------- 5--------------------9~~
------7-8------8--7-8---7--8---7---
-7-8-------------------------------


           A
Вокруг холмы, леса овраги и луга
И вдоль дороги рыжие стоят стога
И ярко светит солнце в небе голубом
Ему навстречу весело мы все идем


Мы добряки, мы тролли, веселим людей
У нас в запасе множество смешных идей
Как хорошо, что здесь мы все сейчас живем
Давайте песню нашу хором пропоем


E    H    A
Хей!

A  G#m  F#m  E  H


       E
Издалека идем, встречайте нас, народ
Смотрите, пляшем мы у городских ворот
A G#m F#m E   H
От-во-ряй-те нам


          E
Откройте настежь окна, распахните двери
Мы сейчас для вас устроим представленье
  A     G#m F#m E   H
Праздник по-да-рим вам


Вылазтье все, кто добрый или кто злодей
Мы посмеемся, вместе будет веселей
Всем будет веселей


Мы в каждый дом, тра-ля-ля, шлем большой привет
Научим вас, как жить, не зная бед
Жить без зла и бед


Смотрите!
Смотрите!
Смотрите!


Открывайте окна, распахните двери
Мы сейчас устроим для вас представление


Но лишь на башне полночь прогремят часы
Из добрых троллей в тени обратимся мы
С людьми не будем больше петь и танцевать
Совсем другую службу будем выполнять


Кто не пришел на праздник, кто не понял нас
Кто в сундуке в подвале свой стерег алмаз
И в чьих сердцах при виде нас рождалась злость
Те навсегда исчезнут, сгинут в эту ночь


  E   H  A
Прочь!
         E   H   A
Сгинут прочь!

Понравилась песня "Веселые Тролли" ?

Поделись с друзьями:
0

Привет, гитарист!

Пройди супер-курс по гитаре и порази всех своей игрой!

Забрать курс!
ВАМ ПОДАРКИ ОТ ПРОЕКТА
"ГИТАРНАЯ РЕВОЛЮЦИЯ"