Король и Шут - Он не знает, что такое жить - аккорды и текст песни

Вступление :

   Hm              D       C#        
E-----------------------------------1 
B-----------------------------------2 
G-----------------------------------3
D------------------0-0--------------4
A--2-2---0-2-2---0-------0-4-4---0--5
E------2-------2-------2-------2----6


Hm                   D  C#  
Вечерело солнце опус-ка-лось
Вечеслав заснул на гамаке
Одолела мальчика усталость
Hm                       G 
Кровь текла по раненой щекее


Проигрыш : Hm G Em A


Hm  G   Em  A 
ЕЕЕЕЕЕЕЕЕЕЕЕЕЕЕЕ


Hm       G      Em         A  
Вечерело солнце солнце опускалось
Вечеслав заснул заснул на гамаке
Одолела мальчика мальчика усталость
Кровь текла по раненой раненой щекее


F                A
И ничто парнишку не разбудит
G                    C
Гром не всилах парня разбудить
F
Мальчик больше жить уже не будет
Он не знает что такое жить
Hm
Он не знает что такое жить


Hm         G     Em           A
И ничто парнишку больше не разбудит
Гром не всилах парня больше разбудить
Мальчик больше жить не будет больше жить не будет
Он не знает что что такое жить


F                A
И ничто парнишку не разбудит
G                    C
Гром не всилах парня разбудить
F
Мальчик больше жить уже не будет
Он не знает что такое жить
Hm
Он не знает что такое жить


Проигрыш: D E F#


Соло :

   Hm  G   Em  A    Hm  G   Em  A
E------------------------------------1
B------7-7-5-5----------7-7-8-8-7-5--2 
G--4-4---------7-6--4-4--------------3
D------------------------------------4 
A------------------------------------5
E------------------------------------6


Проигрыш: Hm  G  Em  A


Hm          D         C#
Он не знает что такое жить

Hm   

Hm         
Он не знает что такое жить 
Hm         
Он не знает что такое жить


Проигрыш : Hm  A


Hm   G   F#
ЕЕЕЕ ХЭЙ НЕ РАЗБУДИТ

Hm         G     Em            A  Hm       
И ничто парнишку больше не раз-бу-дит!

Понравилась песня "Он не знает, что такое жить" ?

Поделись с друзьями:
0

Привет, гитарист!

Пройди супер-курс по гитаре и порази всех своей игрой!

Забрать курс!
ВАМ ПОДАРКИ ОТ ПРОЕКТА
"ГИТАРНАЯ РЕВОЛЮЦИЯ"