Кино (Виктор Цой) - Спокойная ночь - аккорды и текст песни

Вступление:

E||---------------------------|-------------------------|
B||---------------------------|-------------------------|
G||-------------------------0-|----0--0-----------------|
D||---------------------------|-------------------------|
A||--0--0--0--3--3--3--3--3---|----------3--3--3--3--3--|
E||---------------------------|-------------------------|

|--------------------------|--------------------------|
|--------------------------|--------------------------|
|--------------------------|--------------------------|
|-----------0--0--0--0--0--|--0--0--0--------------0--|
|--2--2--2-----------------|-----------3--3--2--3-----|
|--------------------------|--------------------------|

Am Am7 G Dm Dm7 Dm6


  Am            Am7               G  Gadd9
Крыши домов дрожат под тяжестью дней
   Dm          Dm7   Am        Am7
Небесный пастух   пасет облака
 Am               Am7           G  Gadd9
Город стреляет в ночь дробью огней
    Dm         Dm7     Am          Am7
Но ночь сильней,  ее власть велика


Припев:

    F                 E
   Тем, кто ложится спать
                Am Am7
   Спокойного сна
F C           Am  Am7
   Спокойная ночь
    F                 E
   Тем, кто ложится спать
                Am Am7
   Спокойного сна
F C           Am  /Am Am7 G Dm Dm7 Dm6/
   Спокойная ночь


Я ждал это время, и вот это время пришло
Те, кто молчал,  перестали молчать
Те, кому нечего ждать, садятся в седло
Их не догнать, уже не догнать

  
Припев:

Тем, кто ложится спать
Спокойного сна
Спокойная ночь
Тем, кто ложится спать
Спокойного сна
Спокойная ночь
     

Соседи приходят, им слышится стук копыт
Мешает уснуть,  тревожит их сон
Те, кому нечего ждать, отправляются в путь
Те, кто спасен,  те, кто спасен
  

Припев:

А тем, кто ложится спать
Спокойного сна
Спокойная ночь
Тем, кто ложится спать
Спокойного сна
Спокойная ночь

Видео и разбор песни

Понравилась песня "Спокойная ночь" ?

Поделись с друзьями:

Аккорды других песен "Кино (Виктор Цой)" :

все песни »

Эта песня из категории:

0

Привет, гитарист!

Пройди супер-курс по гитаре и порази всех своей игрой!

Забрать курс!
ВАМ ПОДАРКИ ОТ ПРОЕКТА
"ГИТАРНАЯ РЕВОЛЮЦИЯ"