Кино (Виктор Цой) - Сосны на морском берегу - аккорды и текст песни

Вступление:

     D              A              Hm
E||--2--2--3--2--|--------2-----|--2--2--2--2--2--2--2--2--|
B||--3--3--3--3--|--2--2-----2--|--3--3--3--3--3--3--3--3--|
G||--2--2--2--2--|--2--2--2--2--|--4--4--4--4--4--4--4--4--|
D||--------------|--2--2--2--2--|--4--4--4--4--4--4--4--4--|
A||--------------|--------------|--------------------------|
E||--------------|--------------|--------------------------|

   F#m
|--2--2--2--2--2--2--2--2--||
|--2--2--2--2--2--2--2--2--||
|--2--2--2--2--2--2--2--2--||
|--4--4--4--4--4--4--4--4--||
|--------------------------||
|--------------------------||


     Em
Я устал от чужих городов
     D
Я устал колоть этот лед
     C#m
Я хотел бы уснуть
                 Hm
Ho нет времени спать


И oпять за окнами ночь
И oпять где-то ждут меня
И oпять я готов идти
Опять


Припев:

      D
Ho я верю, что ты
        A
Снова скажешь эти несколько слов
      Hm
И тогда я готов
   A                      Hm
Оставить след на этом снегу


      D
И я знаю, что мне
    A
Не долго осталось ждать
        G
Чтобы снова увидеть
    F#m             Hm
Сосны на морском берегу


     Em
Переулки молчат
     D
Под ногами усталый асфальт
     C#m
Но под крышами город
            Hm
Продолжает жить


И пускай фонари
Светят ярче далёких звёзд
Фонари все погаснут
А звёзды будут светить


Припев:

      D
И я верю, что ты
        A
Снова скажешь эти несколько слов
      Hm
И тогда я готов
   A                      Hm
Оставить след на этом снегу

      D
И я знаю, что мне
    A
Не долго осталось ждать
        G
Чтобы снова увидеть
    F#m             Hm
Сосны на морском берегу
        G
Чтобы снова увидеть
    F#m             Hm
Сосны на морском берегу
        G
Чтобы снова увидеть
    F#m             Hm
Сосны на морском берегу
Как играть песню:

1. Вначале играем D - вниз вверх.
Добавляем мизинец на 3 лад первой струны.
И вниз по струнам, потом отпускаем и играем обычный D один раз вверх

2. Далее таким же образом A (не на баррэ). Тут дополнительная нота такая:
Переставляем мизинец со 2 лада 2 струны на 2 лад 1 струны и потом обратно

3. Потом играем просто Hm (вверх, вниз...)

4. Потом играем просто F#m (вверх, вниз...)

Видео и разбор песни

Понравилась песня "Сосны на морском берегу" ?

Поделись с друзьями:
0

Привет, гитарист!

Пройди супер-курс по гитаре и порази всех своей игрой!

Забрать курс!
ВАМ ПОДАРКИ ОТ ПРОЕКТА
"ГИТАРНАЯ РЕВОЛЮЦИЯ"