Кино (Виктор Цой) - Прогулка романтика - аккорды и текст песни

Вступление:

G||-----||-------------------------|------------------------|
D||-----||------------x---------x--|-----------x---------x--|
A||--x--||---2--3--x-----3---------|--------x---------------|
E||-----||-------------------------|--2--3--------3---------|
 
|------------------------|-------------------------||
|-----------x------------|-----------x---------x---||
|--4--5--x-----5------x--|--------x----------------||
|------------------------|--0--1--------1----------||

C G Dm F


    C          G                  Dm     F
Гроза за окном. Гроза с той стороны окна
   C               G           C G
Горят фонари и причудливы тени
C              G              Dm        F
Я смотрю в ночь, я вижу, что ночь темна
   C                G
Но это не станет помехой прогулке


Припев:

   E     C    Am
Романтика, романтика
   C          Am
Романтика, романтика	


Подворотни страшны, я слышу как хлопают двери
Чёрные кошки перебегают дорогу
Пусть бегут, я в эти сказки не верю
И это не станет помехой прогулке
  

Припев:

Романтика, романтика
Романтика, романтика
     

Трудно идти, я вышел уже давно
И вечер в гостях был так приятен и весел
Я пил вино, я так люблю вино
Но это не стало помехой прогулке
  

Припев:

Романтика, романтика
Романтика, романтика
     

Я проснулся в метро  когда там тушили свет
Меня разбудил человек в красной шапке
Это - кольцо, и обратного поезда нет
Но это не станет помехой прогулке
  

Припев:

   E     C    Am
Романтика, романтика
   C             Am
Романтика, неоромантика
   C
Романтика

Видео к песне

Понравилась песня "Прогулка романтика" ?

Поделись с друзьями:
0

Привет, гитарист!

Пройди супер-курс по гитаре и порази всех своей игрой!

Забрать курс!
ВАМ ПОДАРКИ ОТ ПРОЕКТА
"ГИТАРНАЯ РЕВОЛЮЦИЯ"