Кино (Виктор Цой) - Последний герой - аккорды и текст песни

Вступление:


       DsuD4                       Em     G      Bm     Bm
E||----3--2---------3--2--------|------0------3------2--2----|
B||----3----3-------3----3------|------0------3------3--3----|
G||----2-------2----2-------2---|------0------4--4-4-4--4----|
D||----0------------0-----------|----2-2--5-5-5--4-4-4--4----|
A||-----------------------------|--2-2-2--5-5-5--2-2-2--2----|
E||-----------------------------|--0-0-0--3-3-3--------------|


  D              Dsus4       Em     G      Bm     Bm
|--2----2--2--2-2-3--2--3--|------0------3------2--2----|
|--3----3--3--3-3-3--3--3--|------0------3------3--3----|
|--2----2--2--2-2-2--2--2--|------0------4--4-4-4--4----|
|--------------------------|----2-2--5-5-5--4-4-4--4----|
|--------------------------|--2-2-2--5-5-5--2-2-2--2----|
|--------------------------|--0-0-0--3-3-3--------------|


                              Em     G      Bm     Bm
|--2----2--2--2-2-3--2--3--|------0------3------2--2----|
|--3----3--3--3-3-3--3--3--|------0------3------3--3----|
|--2----2--2--2-2-2--2--2--|------0------4--4-4-4--4----|
|--------------------------|----2-2--5-5-5--4-4-4--4----|
|--------------------------|--2-2-2--5-5-5--2-2-2--2----|
|--------------------------|--0-0-0--3-3-3--------------|


                              Em     G      Bm     Bm
|--2----2--2--2-2-3--2--3--|------0------3------2--2----|
|--3----3--3--3-3-3--3--3--|------0------3------3--3----|
|--2----2--2--2-2-2--2--2--|------0------4--4-4-4--4----|
|--------------------------|----2-2--5-5-5--4-4-4--4----|
|--------------------------|--2-2-2--5-5-5--2-2-2--2----|
|--------------------------|--0-0-0--3-3-3--------------|



|------2--2--2----------2--2--|
|--3-3-3--3--3--3-3-3-3-3--3--|
|--2-2-2--2--2--2-2-2-2-2--2--|
|--0-0-0--0--0--0-0-0-0-0--0--|
|-----------------------------|
|-----------------------------|


     Em          Hm             G           D
     Ночь        коротка,       цель        далека
E||--------------------------|--------------------2-----|
B||--------0-----------3-----|--------3-----------3-----|
G||--------0-----------4-----|--------4-----2--2--2--2--|
D||--2--2--2--2--4--4--4--4--|--5--5--5--5--0--0--0--0--|
A||--2--2--2--2--2--2--2--2--|--5--5--5--5--0--0--0--0--|
E||--0--0--0--0--------------|--3--3--3--3--------------|


     Em          Hm             G           D
     Ночью так   часто          хочется     пить,
E||--------------------------|--------------------2-----|
B||--------0-----------3-----|--------3-----------3-----|
G||--------0-----------4-----|--------4-----2--2--2--2--|
D||--2--2--2--2--4--4--4--4--|--5--5--5--5--0--0--0--0--|
A||--2--2--2--2--2--2--2--2--|--5--5--5--5--0--0--0--0--|
E||--0--0--0--0--------------|--3--3--3--3--------------|


     Em        Hm
Ты выходишь на кухню
     G            D
Но вода здесь горька
       Em           Hm
Ты не можешь здесь спать
        G          D
Ты не хочешь здесь жить


Припев:

     Em          Hm             G           D
     Доброе      утро,          последний   герой!
E||--------------------------|--------------------2-----|
B||--------0-----------3-----|--------3-----------3-----|
G||--------0-----------4-----|--------4-----2--2--2--2--|
D||--2--2--2--2--4--4--4--4--|--5--5--5--5--0--0--0--0--|
A||--2--2--2--2--2--2--2--2--|--5--5--5--5--0--0--0--0--|
E||--0--0--0--0--------------|--3--3--3--3--------------|

     Em          Hm             G           D
     Доброе      утро           тебе и таким, как ты,
E||--------------------------|--------------------2-----|
B||--------0-----------3-----|--------3-----------3-----|
G||--------0-----------4-----|--------4-----2--2--2--2--|
D||--2--2--2--2--4--4--4--4--|--5--5--5--5--0--0--0--0--|
A||--2--2--2--2--2--2--2--2--|--5--5--5--5--0--0--0--0--|
E||--0--0--0--0--------------|--3--3--3--3--------------|


Em       Hm     G        D
Доброе утро, последний герой
Em               Hm       Em
Здравствуй, последний герой /Em G Hm/


Ты хотел быть один, это быстро прошло
Ты хотел быть один, но не смог быть один
Твоя ноша легка, но немеет рука
И ты встречаешь рассвет за игрой в дурака


Припев:

Доброе утро, последний герой
Доброе утро тебе и таким, как ты
Доброе утро, последний герой
Здравствуй, последний герой


Утром ты стремишься скорее уйти
Телефонный звонок, как команда "Вперед!"
Ты уходишь туда, куда не хочешь идти
Ты уходишь туда, но тебя там никто не ждет


Припев:

Доброе утро, последний герой
Доброе утро тебе и таким, как ты
Доброе утро, последний герой
Здравствуй, последний герой
Как играть песню:

1. Вначале играем DsuD4 (аккорд D с добавлением мизинца на первой струне, на третий лад) - проводим по струнам вниз. Ставим D и играем перебор.Так два раза

2. Ставим Em - проводим по струнам вниз (2 басовые струны, 5 и 6)
Проводим по струнам вверх (3 басовые струны, 4, 5 и 6
Резкий проход по всем струнам (аккорд Em)
И так сыграть аккорды Em, G и Bm

3. Ставим D - и играем отрывисто ставя кое-где DsuD4 (Смотрите табулатуру)
И так сыграть аккорды Em, G и Bm

Если Вы играете первый раз, то снала послушайте "Последний герой" с "Акустического концерта" Виктора Цоя.
Желательно играть медиатором, потому что, темп игры в этой песне большой, и тяжело успеть сыграть пальцами.

Видео и разбор песни

Понравилась песня "Последний герой" ?

Поделись с друзьями:

Аккорды других песен "Кино (Виктор Цой)" :

все песни »

Эта песня из категории:

0

Привет, гитарист!

Пройди супер-курс по гитаре и порази всех своей игрой!

Забрать курс!
ВАМ ПОДАРКИ ОТ ПРОЕКТА
"ГИТАРНАЯ РЕВОЛЮЦИЯ"