Кино (Виктор Цой) - Песня без слов - аккорды и текст песни

Вступление:

 Am                                               G
E||-------|-------------------|-------------------|--------|
H||-------|-------------------|-------------------|--------|
G||-------|-------------------|-------------------|--------|
D||-------|-2---0-----------0-|-2---0-----------0-|--------|
A||-----0-|---0---0-3-0-2-3---|---0---0-3-0-2-3---|-2------|
E||-------|-------------------|-------------------|--------|

          Dm                                      E       F
E||-------|-------------------|-------------------|--------|------|
H||-------|-------------------|-------------------|--------|------|
G||-------|-------------------|-------------------|--------|------|
D||-------|-2---0-----------0-|-2---0-----------0-|--------|------|
A||-----0-|---0---0-3-0-2-3---|---0---0-3-0-2-3---|-2------|------|
E||-------|-------------------|-------------------|--------|------|

/Am G Dm E F/ 


 Am
Песня без слов, ночь без сна
G
Все в свое время - зима и весна
 Dm
Каждой звезде - свой неба кусок
 E                 F
Каждому морю - дождя глоток
 Am
Каждому яблоку - место упасть
 G
Каждому вору - возможность украсть
 Dm
Каждой собаке - палку и кость
   E               F
И каждому волку - зубы и злость


Припев:

  E              Am
Снова за окнами белый день
 E               Am
День вызывает меня на бой
   G              F
Я чувствую, закрывая глаза
      E             F        /Am G Dm E F/
Весь мир идёт на меня войной


Если есть стадо - есть пастух
Если есть тело - должен быть дух
Если есть шаг - должен быть след
Если есть тьма - должен быть свет
Хочешь ли ты изменить этот мир
Сможешь ли ты принять как есть
Встать и выйти из ряда вон
Сесть на электрический стул или трон?
  

Припев:

Снова за окнами белый день
День вызывает меня на бой
Я чувствую, закрывая глаза
Весь мир идёт на меня войной

Видео и разбор песни

Понравилась песня "Песня без слов" ?

Поделись с друзьями:
0

Привет, гитарист!

Пройди супер-курс по гитаре и порази всех своей игрой!

Забрать курс!
ВАМ ПОДАРКИ ОТ ПРОЕКТА
"ГИТАРНАЯ РЕВОЛЮЦИЯ"