Кино (Виктор Цой) - Муравейник - аккорды и текст песни

Вступление:


E||----------|-------------|------------|-------------|----------|-------------|
B||----------|-------------|------------|-------------|----------|-------------|
G||----------|-------------|--0---------|-------------|----------|-------------|
D||----------|----0--2--4--|-----4------|--0----4--2--|----------|-------0--2--|
A||----------|-------------|------------|-------------|----------|----4--------|
E||----------|-------------|------------|-------------|----------|-------------|



|-----------|-----------|-----------|-------------|------------|-------------|
|-----------|-----------|-----------|-------------|------------|-------------|
|-----------|-----------|-----------|-------------|--0---------|-------------|
|--4--------|--2--------|--0--------|----0--2--4--|-----4------|--0----4--2--|
|-----------|-----------|-----------|-------------|------------|-------------|
|-----------|-----------|-----------|-------------|------------|-------------|



|----------|--------------|
|----------|--------------|
|----------|--------------|
|----------|--2--0-----0--|
|----------|--------4-----|
|----------|--------------|


 D                A        Hm          G  A
Начинается новый день и машины туда-сюда
        D                  A          Hm             G  A
Раз уж солнцу вставать не лень и для нас значит ерунда
     D        A           Hm                 G  A
Муравейник живёт, кто-то лапку сломал не в счёт
       D          A          Hm           G  A
А до свадьбы заживёт, а помрёт - так помрёт


Припев:

G                      A
Я не люблю когда мне врут
        D              Hm
Но от правды я тоже устал
     G             A
Я пытался найти приют
     D                Hm
Говорят, что плохо искал
         G            A
И я не знаю каков процент
      D                Hm
Сумасшедших на данный час
         G                A
Но если верить глазам и ушам
                    D    /D Hm  G A D Hm G A D/
Больше в несколько раз


D                         A
И мы могли бы вести войну
        Hm              G  A
Против тех, кто против нас
         D                              A
Так как те, кто против тех, кто против нас
         Hm                G  A
Не справляются с ними без нас
      D           A
Наше будущее - туман
          Hm                 G  A
В нашем прошлом - то ад, то рай
      D                    A
Наши деньги не лезут в карман
      Hm          G  A
Вот и утро - вставай



Припев:

 G                      A
Я не люблю когда мне врут
        D              Hm
Но от правды я тоже устал
     G             A
Я пытался найти приют
     D                Hm
Говорят, что плохо искал
         G            A
И я не знаю каков процент
      D                Hm
Сумасшедших на данный час
         G                A
Но если верить глазам и ушам
                    D    /D Hm  G A D Hm G A D/
Больше в несколько раз

Видео и разбор песни

Понравилась песня "Муравейник" ?

Поделись с друзьями:
0

Привет, гитарист!

Пройди супер-курс по гитаре и порази всех своей игрой!

Забрать курс!
ВАМ ПОДАРКИ ОТ ПРОЕКТА
"ГИТАРНАЯ РЕВОЛЮЦИЯ"