Кино (Виктор Цой) - Музыка волн - аккорды и текст песни

Вступление:


E||----------------------------|-------------------------|
B||----------------------------|-------------------------|
G||--------------0-------------|-----------2-------------|
D||-----------0----------0-----|--------2----------2-----|
A||--3--3-(0)---------3-----3--|--0--0----------0-----0--|
E||----------------------------|-------------------------|


|-------------------------|--------------------|
|-------------------------|--------------------|
|-------------------------|-------------------*|
|-----------3-------3-----|--0----------------*|
|--------3-------3-----3--|--2-----------------|
|--1--1-------------------|--3-----------------|

/C Am F G/ 

   C                  Am               F
Я вижу, как волны смывают следы на песке
    C                Am                F
Я слышу, как ветер поёт свою странную песню
    C                  Am            F G
Я слышу, как струны деревьев играют её
C         G            Am   F G /C Am F G/
Музыку волн, музыку ветра

        
Здесь трудно сказать, что такое асфальт
Здесь трудно сказать, что такое машина
Здесь нужно руками кидать воду вверх
Музыка волн, музыка ветра


Кто из вас вспомнит о тех, кто сбился с дороги?
Кто из вас вспомнит о тех, кто смеялся и пел?
Кто из вас вспомнит, чувствуя холод приклада
Музыку волн, музыку ветра
Музыку волн, музыку ветра
Как играть песню: Бой: вниз-глушить-вверх-вверх-глушить

Видео и разбор песни

Понравилась песня "Музыка волн" ?

Поделись с друзьями:
0

Привет, гитарист!

Пройди супер-курс по гитаре и порази всех своей игрой!

Забрать курс!
ВАМ ПОДАРКИ ОТ ПРОЕКТА
"ГИТАРНАЯ РЕВОЛЮЦИЯ"