Кино (Виктор Цой) - Легенда - аккорды и текст песни

Вступление:


E||-----0-|---2---5-|-2-------|---0---2-|-0-------|
H||-2-3---|-3---3---|---3---0-|-2---2---|---2---2-|
G||-------|-2-------|-----2---|-2-------|-----2---|
D||-------|-0-------|---------|---------|---------|
A||-------|---------|---------|-0-------|---------|
E||-------|---------|---------|---------|---------|

   Hm                  F#m                 G
E||---2---5-|-2-------|---2-----|---2-----|---3-----|
H||-3---3---|---3---3-|-2---2---|-2---2---|-3---0---|
G||-4-------|-----2---|-2-----2-|-------2-|-0-----2-|
D||-4-------|---------|-4-------|---------|-0-------|
A||---------|---------|---------|---------|---------|
E||---------|---------|---------|---------|---------|

             A              Hm
E||-----0---|-------|-------|----
H||---0---0-|-2-2-0-|-3-2-0-|----
G||-0-------|-2-----|-2-----|----
D||-0-------|-------|-------|----
A||---------|-0-----|-0-----|----
E||---------|-------|-------|----

I Куплет

Hm                                     F#m
  Среди связок в горле комом теснится крик,
        Hm                                A
  Но настала пора, и тут уж кричи, не кричи.
          D                            A
  Лишь потом кто-то долго не сможет забыть,
         Hm                               F#m
  Как, шатаясь, бойцы об траву вытирали мечи.

II Куплет
  И как хлопало крыльями чёрное племя ворон,
  Как смеялось небо, а потом прикусило язык.
  И дрожала рука у того, кто остался жив,
  И внезапно в вечность вдруг превратился миг.
     
III Куплет
  И горел погребальным костром закат.
  И волками смотрели звёзды из облаков.
  Как, раскинув руки, лежали ушедшие в ночь,
  И как спали вповалку живые, не видя снов.
     
IV Куплет
  А Жизнь - только слово, есть лишь Любовь и есть Смерть.
  Эй! А кто будет петь, если все будут спать?
  Смерть стоит того, чтобы жить,
  А Любовь стоит того чтобы ждать...

Понравилась песня "Легенда" ? - Расскажи друзьям:

0