Кино (Виктор Цой) - Красно-желтые дни - аккорды и текст песни

Вступление:

E||--------------------|-------------------|--------------------|
B||--------------------|-------------------|--------------------|
G||--------------------|-------------------|--------------------|
D||--------------------|-------------------|--0-----------------|
A||--2-----------------|--2----------------|-----------0--------|
E||-----------2--------|-------------------|--------------------|

|-------------------|--------------------|---------------------|
|-------------------|--------------------|---------------------|
|-------------------|--0-----------------|------------------0--|
|--0----------------|-----------4--------|--2------------4-----|
|-------------------|--------------------|---------------------|
|-------------------|--------------------|---------------------|

|--------------------|-------------------|
|--------------------|-------------------|
|--------------------|-------------------|
|--4-----------------|--0----------------|
|-----------0--------|-------------------|
|--------------------|-------------------|


  Hm                     G
Застоялся мой поезд в депо
A                  G A
Снова я уезжаю. Пора
  Hm                        G
На пороге ветер заждался меня
A                           G A
На пороге осень - моя сестра


Припев:

 Hm      Fm#          Hm
После красно-желтых дней
  D        A            D
Начнется и кончится зима
 G       Fm#      Em
Горе ты мое от ума
 D              A       D
Не печалься, гляди веселей
И я вернусь домой
Со щитом, а, может быть, на щите
В серебре, а, может быть, в нищете
Но как можно скорей


Расскажи мне о тех, кто устал
От безжалостных уличных драм
И о храме из разбитых сердец
И о тех, кто идет в этот храм


Припев:

После красно-желтых дней
Начнется и кончится зима
Горе ты мое от ума
Не печалься, гляди веселей
И я вернусь домой
Со щитом, а, может быть, на щите
В серебре, а, может быть, в нищете
Но как можно скорей


А мне приснилось: миром правит любовь
А мне приснилось: миром правит мечта
И над этим прекрасно горит звезда
Я проснулся и понял - беда


Припев:

После красно-желтых дней
Начнется и кончится зима
Горе ты мое от ума
Не печалься, гляди веселей
И я вернусь домой
Со щитом, а, может быть, на щите
В серебре, а, может быть, в нищете
Но как можно скорей

Видео и разбор песни

Понравилась песня "Красно-желтые дни" ?

Поделись с друзьями:
0

Привет, гитарист!

Пройди супер-курс по гитаре и порази всех своей игрой!

Забрать курс!
ВАМ ПОДАРКИ ОТ ПРОЕКТА
"ГИТАРНАЯ РЕВОЛЮЦИЯ"