Кино (Виктор Цой) - Игра - аккорды и текст песни

Вступление:

    Am             Em                  Am             Em
E||--------------|-------------|-----|--------------|-------------|-----|-
B||-1------1-3-1-|-0-1-0-0-1-0-|-0-0-|-1------1-3-1-|-0-1-0-0-1-0-|-0-0-|-
G||---2----------|-------------|-----|---2----------|-------------|-----|-
D||-----2--------|-------------|-----|-----2--------|-------------|-----|-
A||-0------0-0-0-|-2-2-2-2-2-2-|-0-0-|-0------0-0-0-|-2-2-2-2-2-2-|-0-0-|-
E||--------------|-------------|-----|--------------|-------------|-----|-

    C                                  Am            Em
E||--------0-1-0---|---0-------0-----|-------------|-------------|-----|--
B||-1------------0-|-3---3---3---3---|-1-----1-3-1-|-0-1-0-1-0-1-|-0-0-|--
G||---0------------|-------0-------0-|---2---------|-------------|-----|--
D||-----2----------|-----------------|-----2-------|-------------|-----|--
A||-3--------------|-2-------2-------|-0-----0-0-0-|-2-2-2-2-2-2-|-0-0-|--
E||----------------|-----------------|-------------|-------------|-----|--


Соло:

    Am            G                  Am             G
E||-5------------------------5---------------------------
B||--5--5-7-5-3-5-3-3-5-3---5--5-7-5-3-5-3-3-5-3---------
G||----5-------------------------5-----------------------
D||------------------------------------------------------
A||------------------------------------------------------
E||------------------------------------------------------
    Am            G                  Am             G
E||-8----------------------------5-----------------------
B||--8--8-10-8-5-3-5-3-3-5-3---5--5-7-5-3-5-3-3-5-3------
G||----9----------------------------5--------------------
D||------------------------------------------------------
A||------------------------------------------------------
E||------------------------------------------------------


 Am             G                  Am
Уже поздно, все спят, и тебе пора спать
 Am             G                C
Завтра в восемь утра начнется игра
               G                Am
Завтра солнце встанет в восемь утра
                  G                     Am
Крепкий утренний чай, крепкий утренний лед
                 G                    C
Два из правил игры, а нарушишь - пропал
               G                         Am
Завтра утром ты будешь жалеть, что не спал

        
Припев:

     Am                              G
Но сейчас деревья стучат ветвями в стекла
 Am                                   G
Ты можешь лечь и уснуть, и убить эту ночь
  Am                                 G
Деревья, как звери, царапают темные стекла
 Am                                     G
Пока еще не поздно лечь и уснуть в эту ночь


Ни звонков, ни шагов, ни звона ключей
Еле слышно часы у кровати стучат
В этом доме все давно уже спят
Только капля за каплей из крана вода
Только капля за каплей из времени дни
Ты пойдешь рубить лес, но увидишь лишь пни
  

Припев:

Но сейчас деревья стучат ветвями в стекла,
Ты можешь лечь и уснуть, и убить эту ночь.
Деревья, как звери, царапают темные стекла,
Пока еще не поздно лечь и уснуть в эту ночь

Видео к песне

Понравилась песня "Игра" ?

Поделись с друзьями:
0

Привет, гитарист!

Пройди супер-курс по гитаре и порази всех своей игрой!

Забрать курс!
ВАМ ПОДАРКИ ОТ ПРОЕКТА
"ГИТАРНАЯ РЕВОЛЮЦИЯ"