Кино (Виктор Цой) - Генерал - аккорды и текст песни

Вступление:

  Em               Cm              D     C         Em
E||-----0---------|-----3---------|-----2---0-----|-----0---0---0-|
H||-----0---------|-----4---------|-----3---1---1-|-----0---0---0-|
G||---0-----------|---5-----------|---2---------0-|---0-------0---|
D||---------------|---------------|-0-----2-------|---------------|
A||-------------0-|-3-------0-2-3-|-----------3---|---------------|
E||-0-----0-0-3---|-------3-------|---------------|-0-----0-------|


E||-3-------------------------
H||--------1------------------
G||----------0----------------
D||---4-2------0------4-------
A||---------------0-3---2-----
E||---------------------------


  Em                     Cm
Где Вы теперь и с кем, кто хочет быть судьей
  D                Em
Кто помнит все имена?
                     Cm
Нам не хватает тем, не нарушай покой
D                    Em
Эта ночь слишком темна


Припев:

  F                   G
Где твой мундир, генерал
          F                  Em
Твои ордена, спина, как струна?
 F               Am
Ты уже слышал отбой
                      G               F   /Em Cm D C Em/
Просто дождь бил по крыше твоей, генерал


Все находят время, чтобы уйти
Никто не уйдет навсегда
Парламентеры один за другим
И каждый знает горечь плода
  

Припев:

Где твой мундир, генерал
Твои ордена, спина, как струна?
Ты уже слышал отбой
Просто дождь бил по крыше твоей, генерал
     

Хочется спать, но вот стоит чай
И горит свет ста свечей
Может быть завтра с утра будет солнце
И тот ключ в связке ключей?
  

Припев.

Видео и разбор песни

Понравилась песня "Генерал" ?

Поделись с друзьями:
0

Привет, гитарист!

Пройди супер-курс по гитаре и порази всех своей игрой!

Забрать курс!
ВАМ ПОДАРКИ ОТ ПРОЕКТА
"ГИТАРНАЯ РЕВОЛЮЦИЯ"