Кино (Виктор Цой) - Апрель - аккорды и текст песни

Вступление:

       Em      Em
|---0--0----0--0---8----8--7--5--3----5--7--2--2--2--2-----|
|------0-------0----0-------------0----------0--0--0--0----|
|------0-------0-----0-------------0----------0--0--0----0-|
|------2-------2---7----7--5--4--2----4--5--0--------------|
|-2----2--2----2-------------------------------------------|
|------0-------0-------------------------------------------|

Em
Над землей-мороз
G
Что не тронь, все-лед
Am                D7    D
Лишь во сне моем поет капель
Em
А снег идет стеной
G
А снег идет весь день
Am                D     Em
А за той стеной стоит апрель


Припев:

        Am          D        Em
А он придет и приведет за собой весну
      Am         D       G
И рассеет серых туч войска
     Am            D         Em
А когда мы все посмотрим в глаза его
           Am          D       Em
На нас из глаз его посмотрит тоска
      Am      D      Em
И откроются двери домов
         Am            D          G
Да ты садись,а то в ногах правды нет
     Am            D         Em
И когда мы все посмотрим в глаза его
     Am            D            Em
То увидим в тех глазах солнца свет


На теле ран не счесть
Нелегки шаги
Лишь в груди горит звезда
И умрет апрель
И родится вновь
И придет уже навсегда


Припев:

А он придет и приведет за собой весну
И рассеет серых туч войска
А когда мы все посмотрим в глаза его
На нас из глаз его посмотрит тоска
И откроются двери домов
Да ты садись,а то в ногах правды нет
И когда мы все посмотрим в глаза его
То увидим в тех глазах солнца свет


Окончание:
                                                         Em
|-3----5----7--8----7----8----7--5--3--5--7--2--2--2--2----|
|--0----0-------0----0----0-------------------0--0--0--0---|
|---0----0-------0----0----0-------------------0--0--0---0-|
|-2----4----5--7----5----7----5--4--2--4--5--0-------------|
-----------------------------------------------|
-----------------------------------------------|

Видео и разбор песни

Понравилась песня "Апрель" ?

Поделись с друзьями:
0

Привет, гитарист!

Пройди супер-курс по гитаре и порази всех своей игрой!

Забрать курс!
ВАМ ПОДАРКИ ОТ ПРОЕКТА
"ГИТАРНАЯ РЕВОЛЮЦИЯ"